Acordes de Guitarra » S »Seru Giran » Esperando nacer (Tab)

Esperando nacer
Seru Giran

Letras, Acordes y Tabs para Guitarra, Bajo y Ukulele

  • D/A A E/A D/A 
    D/A A E/A D/A 
    A        Amaj7    A7 
    Tengo el corazon abierto 
    Dmaj7 
    todo el mundo puede ver 
          Dm7         F/G 
    un camino para correr. 
    Tengo el alma en un desierto 
    todo el mundo puede ser 
    un camino para crecer. 
    
    E               A2/F#     E/G#         G7/13 
    Todo el mundo dice que mi amor es en vano 
    E               A2/F#   E/G#    G7/13 
    y que llevo siglos esperando nacer, 
       A/F# A/B  D/A   A E/A D/A 
    esperando nacer. 
    
    (D/A A E/A D/A)X2 
    
  • A Amaj7 A7 Dmaj7 Dm7 (G)x2
    
    E Asus2/F# Bsus4/G# G7/13 (F#m7 F#m/B)
    E Asus2/F# Bsus4/G# G7/13 A/F#  A/B
    
    A  D/A  E/A  D/A
    
    A        Amaj7    A7
    Tengo el corazon abierto
    Dmaj7
    todo el mundo puede ver
          Dm7         F/G
    un camino para correr.
    Tengo el alma en un desierto
    todo el mundo puede ser
    un camino para crecer.
    
    E               A2/F#     Bsus4/G# G7/13
    Todo el mundo dice que mi amor es en vano
    E               A2/F#   Bsus4/G#    G7/13
    
  • Intro:
    ------------------------------------------------------------------
    -12b14-12b14b12--10-12--12b14---------10-10----12b13b12-10-----10-
    --------------------------------9h11--------11--------------11----
    ------------------------------------------------------------------
    ------------------------------------------------------------------
    ------------------------------------------------------------------
    
    
    -------------------------------------------------------12b14------
    -12b13b12--10-12-12b13-12-10----12b14-12b14-10-12-14---------10---
    ------------------------------------------------------------------
    ------------------------------------------------------------------
    ------------------------------------------------------------------
    ------------------------------------------------------------------
    
    
    ---------------------------------------10-------------------------
    ----10-10----12b13b12--10-----10-12-14----12b13b12-10-12b13b12-10-
    -11-------11---------------11----------------------
  • E//-------------------------------------
    B//-------------------------------------
    G//--------17^--17^(17)--15--17--17^----
    D//----15-------------------------------
    A//-------------------------------------
    E//-------------------------------------
    
    E//----------------------------
    B//----------------------------
    G//--------15-17-17^(17)--15---
    D//-15h17----------------------
    A//-----------------------------
    E//------------------------------
    
    E//-------------------------------------------
    B//-----------------------------------------
    G//----15--17^(17)--15--15--17^(17)--15-----
    D//17---------------------------------------
    A//------------------------------------------
    E//-------------------------------------------
    
  • +
    ¡Colabora con nosotros!
    Envíanos tu versión de esta canción

Letra de Esperando nacer
Tengo el corazon abierto
todo el mundo puede ver
un camino para correr.
Tengo el alma en un desierto
todo el mundo puede ser
un camino para crecer.
Todo el mundo dice que mi amor es en vano
y que llevo siglos esperando nacer,
esperando nacer.
Yo te he visto en el pasado
con tu cara de jarron
y tu mundo hecho de cliches.
Que esperas ahi al costado del camino?
No escuchaste esta cancion
todo el mundo te quiere ver.
Tengo la esperanza de encontrar un sonido
y un amor tan grande que te pueda mover
por Dios escuchame!
Te imaginas el lamento
de la gente y su manual
de las cosas que nunca fueron.
Y el olor de los jazmines viejos
y la mustia sensacion
de que el tiempo se hecho a perder
Soy un solitario transmitiendo un mensaje,
escribiendo frases para poder creer,
esperando nacer, esperando nacer,
esperando nacer.




[Esperando nacer chords][Esperando nacer cifra]
© LaCuerda.net · aviso legal · privacidad · es · en · pt · contacto