Acordes de Guitarra » S »Santana » Singing Winds, Crying Beasts (Tab)

Singing Winds, Crying Beasts
Santana

Letras, Acordes y Tabs para Guitarra, Bajo y Ukulele

  • |------|--|---------------|-------|--|------|-----------|----------------|
    |--13^-|--|-^13^(13)-10---|-------|--|--/10-|-(10)^12-13^(13)^12-10------|
    |------|--|---------------|-------|--|------|-----------|-------------12-|
    |------|--|---------------|3^2----|--|------|-----------|----------------|
    |------|--|---------------|---5---|--|------|-----------|----------------|
    |------|--|---------------|-------|--|------|-----------|----------------|
                 ~~~~
    |--------|---------------------------|------------------------------|
    |10------|10^11^10---13^(13)^(13)^(13)^(13)(13)^10--13^(13)-(13)^10-|
    |------12|---------------------------|------------------------------|
    |--------|---------------------------|------------------------------|
    |--------|---------------------------|------------------------------|
    |--------|---------------------------|------------------------------|
     F  Em Dm F Em Dm  F      G        F  Em      Dm     MAIN:
    |-----------------|-------------------------|-----| |-----|-----|-------|
    |10--8----10^8----|10-10^12-10^12^10--------|-----| |-----|-----|-------|
    |------10------10-|------------------10^12--|5^7--| |(7)--|(7)--|-(7)\--|
    |-----------------|-------------------------|-----| |-----|-----|-------|
    |-----------------|-------------------------|-----| |-----|-----|-------|
    |-----------------|-------------------------|-----| |-----|-----|-------| 
    
  • Cualquier duda me buscan en Youtube como lualanmi:
    
    ____
    Intro (Where the Guitar comes in):
     (00:42)
    |------------------------------------------------------------------------|
    |-13b15------15b13-10-(feedback)---------------12-h13--14-13b15b13p12----|
    |-------------------------------------12h14---------------------------14-|
    |---------------------------3p2-0----------------------------------------|
    |------------------------------------------------------------------------|
    |------------------------------------------------------------------------|
    
    |----------------------------------------------------------|
    |--------------------------13b15~--15b13-------13b15b13-10-|
    |-12--14-----12--14h15p14----------------14----------------|
    |----------------------------------------------------------|
    |----------------------------------------------------------|
    |----------------------------------------------------------|
    
    |--------------------------------------------------------------------|
    |-10------
  • +
    ¡Colabora con nosotros!
    Envíanos tu versión de esta canción

Letra de Singing Winds, Crying Beasts
~~~~
fdbk............. ful ful ful
2 GUITARS: grad-release
fdbk...... full fl fl fl fl
| 1/2 full fl fl fl|full | full | |
1/2 1/2 1/2 1/2 1/2 1/2 END 2 GUITARS:
| 1/2 | |
SEQUE TO BLACK MAGIC WOMAN:
hld...rlse Pb fl Pb




[Singing Winds, Crying Beasts chords][Singing Winds, Crying Beasts cifra]
© LaCuerda.net · aviso legal · privacidad · es · en · pt · contacto