Acordes de Guitarra » S »Santana » Hoy es Adios (Tab)

Hoy es Adios
Santana

Letras, Acordes y Tabs para Guitarra, Bajo y Ukulele

  • E|-0-(0)-(0)-----------------------|-----------------------0----|
    B|-1-------------------------------|-----------------------1----|
    G|-2---------------------------(2)-|-----------------------2----|
    D|-2--------2-2-3-0h2-0h2-0----(3)-|--------------------0--2----|
    A|-0------------------------3--(3)-|---2-3s5-(5)----2-3----0----|
    E|----------------------------1----|----------------------------|
    
    
    
    E|-------------------------------------------0-1-0------------|
    B|-------------------------------------3-1h3-------3-1-3------|
    G|----------(2)-----2------------2-4-5------------------------|
    D|----(2)-(3)---0h2----2-3-2----------------------------------|
    A|---------------------------5-3------------------------------|
    E|------------------------------------------------------------|
    
    
    
    E|-0-----(0)-1------3-----1-------3----------0------(0)-1-----3------1--|
    B|-1-0h1-----1------3-----1-------3----------1--0h1-----1-----3------1--|
    
  • E|-0----------------------1-----------------0----------------------------------------
    B|-1----------------------1-----------------1-------------------------5-6-5-------5--
    G|-2----------------------2-----------------2---------------4-5-7-5-7-------7-5-7----
    D|-2--2-2-3-0h2-0h2-0-----3-------------0---2--2-3-2-0----7--------------------------
    A|-0------------------3---3--2-3s5--2-3-----0----------3-----------------------------
    E|-----------------------1-----------------------------------------------------------
      Am                     F                  Am                                    Am 
    
    -------------------------------------------------|
    -------------------------------------------------|
    ------------0-2-0-----------------0--2---4-5-7---|
    -3---5---3---------3-2-0-2-----3-----------------|
    -------------------------------------------------|
    -------------------------------------------------|
     F   G   F      G        Am    F  G  F       G
    
    Riff:
    E|-----------------------------------------------5---7-8-10----|
    B|--5--6-6p5---------------------5---5-5-6-5-------------------|
    G|-----------7-5-----4-5-7---5-7-------------7-5---------------|
    
  •    Am                                        Am     
       (0:00)
    e |0-----------------------------------------0-------|
    B |1-----------------------------------------1-------|
    G |2-----------------------------------------2---2---|
    D |2--2-2-2/3-0/2-0/2-0-------------------0--2-2---2-|
    A |0-------------------3---2-3/5-5----2-3----0-------|
    E |----------------------1---------------------------|
    
                                                                              
                                            
    e |---------------------0-1-0-------0---|
    B |-----------0-1-3-1-3-------3-1-3-----|
    G |---------2---------------------------|
    D |-3-2-0-------------------------------|
    A |-------3-----------------------------|
    E |-------------------------------------|
    
    
       (0:12)
    
  •    Am                                      Am      
    1|-----5-|------------------------|---------------|---------------|
    2|-----5-|------------------------|---------------|---------------|
    3|-----5-|------------------------|---------------|---------------|
    4|--7----|------------------------|---------------|-------------7-|
    5|--7----|-7-7-7h8p7--5h7-5h7-----|------------7--|-7-7h8p7-5-----|
    6|-----5-|--------------------7/8-|-7-8-9--8-9----|-----------8---|
    
    1|----------------------------|----------|-------------------|-----------------|
    2|------5------5-6-5--------5-|-5-6-8-10-|-8-10-8------------|-5-6-8-10-8-10-8-|
    3|--5-7---5h7---------7-5-7---|---7-9-10-|--------10-9-7-9-9-|---7-9-10--------|
    4|----------------------------|----------|-------------------|-----------------|
    5|----------------------------|----------|-------------------|-----------------|
    6|----------------------------|----------|-------------------|-----------------|
    
    1|---------------|-------------|-------------5-5-7-8-|
    2|-5-5h7p5-------|-----------5-|-5-5h7p5-------------|
    3|---------7-5---|---5-7-5-7---|---------7-5---------|
    4|-------------7-|-7-----------|---------------------|
    5|---------------|-------------|---------------------|
    
  • +
    ¡Colabora con nosotros!
    Envíanos tu versión de esta canción

Letra de Hoy es Adios
(0:00)


(0:12)

(0:22)

(0:36) (0:41)
(0:46)
(0:52) (1:02)
(1:12)

(1:40) (1:44)
(1:50)
(1:58)
(2:08)
e |5-5-5-5-7-7-7-7-8-8-8-8-10-10-10-10-12-12-12-12|

(2:19)

e |12-12-13-12-10-8-17-17-17-17-19-19-19-19|

(2:29)



(2:47)
(2:57)


e |15-15-15-15-15-17-17-17-17|
(Comienza guitarra electrica......)




[Hoy es Adios chords][Hoy es Adios cifra]
© LaCuerda.net · aviso legal · privacidad · es · en · pt · contacto