Acordes de Guitarra » R »la Rondalla de Saltillo » Por Ella (Tab)

Por Ella
la Rondalla de Saltillo

Letras, Notas, Punteos, Tablaturas y Acordes de Guitarra (Tabs & Chords)

  • Letra y Acordes
    E-3---3---3---5--3---3---3---3---1--0---0---0---0---1--0----------5-3-
    B---5---5---5----------3---3---3----------1---1---1-------3---3-------
    G-----------------------------------------------------------4---4-----
    D---------------------------------------------------------------------
    A-3-------------------------------------0-----------------------------
    E--------------------3------------------------------------3-----------
    
    
    C                      G
    No me importa lo que pase,
                           Am               G
    Lo que digan, lo que hagan, sólo háblame
    C                            G
    Tal vez hoy lo nuestro se acabe
                       Am                    G
    Y se destruya esa torre de amor que formé
    
    C                           G
    Tal vez el cielo no lo entienda
                        Am         G
    
  • Tablatura
    SALUDOS al C.B.t.a 71  (la rondalla y a todas las super amistades
     k tengo)
    ESTA ROLA ES LA PRIMERA QUE SUBO, como la toko no se oye tan mal
    pero si tiene errores corrijanla
    
    
    REQUINTO 1 (SE TOCA DOS VECES EN EL INTRO EL PRIMERO SOLO Y EL SEGUNDO
    CON UN RASGUEO DE LOS ACORDES DEPUES SE TOCA DEL PRIMERO AL TERCER
    PARRAFO)
    
    
    B---7----7---7-------5---5---5-------3---3---3-------2---2---2------
    e-5---5----5---5-7-5---5---5---5-3-2---2---2---2-3-0---0---0---7--5-
    
      D                A              Bm               A
    B---7----7---7-------5---5---5-------3---3---3-------2---2---2------
    e-5---5----5---5-7-5---5---5---5-3-2---2---2---2-3-0---0---0---7--5-
    
    D                      A
      No me importa lo que pase,
    
  • +
    ¡Colabora con nosotros!
    Envíanos tu versión de esta canción

Letra de Por Ella
No me importa lo que pase,
Lo que digan, lo que hagan, sólo háblame
Tal vez hoy lo nuestro se acabe
Y se destruya esa torre de amor que formé
Tal vez el cielo no lo entienda
Ya que nunca se enamora, tal vez
Tal vez mis ojos hoy no lloren
Y mi sonrisa sea otra igual que mi piel
Se lo grité a todos los mares
Y aunque nadie me lo entienda siempre la amé
Por ella la primera que conozco
Por la que daría mi vida donde fuera por ella
La que dice que me ama
Escondiendo en las miradas la verdad de su amor
Por ella la que ya me ha vuelto loco el corazón
Por ella
Requinto
No me importa lo que pase,
Lo que digan, lo que hagan, sólo háblame
Hoy no me importa que el silencio
Hable más que las palabras que dejaron
Esa huella de ti en mi corazón
Con un abrazo y un beso
Si en verdad lo que sientes es amor
Por ella... (Bis 2)



© LaCuerda.net · Aviso Legal · Privacidad