Acordes de Guitarra » R »la Rondalla de Saltillo » Ojos Españoles (Tab)
  • Letra y Acordes
    INTRO:C G C7 G X2
    
    G
    Son, como el sol
                                     D7
    como el azul de cielo y como el mar
    
    son, del color
                                    G
    del clavel que empieza a despertar
    
    
    Son, algo mas
                       G7       C-Em-Am
    que las estrellas al anochecer
    Cm        G
    ole!, y ole!
          D7                         G
    los ojos de la espanola que yo ame
    
    
  • Letra y Acordes
    A             C#m   A#7-A
    Son   como el mar,
    A         Bm     C#m-Cm          Bm  E7-F#7
    como el azul del cielo y como el sol;
    Bm  E7-F#7  Bm     E7
    son    del color,
    Bm                  E7           C#m-Cm-Bm-A#7
    de un clavel que empieza a despertar;
    A             C#m   A#7-A-E7
    son     algo más
    A                 Em-A7     D-F#7-Bm
    que las estrellas al  anochecer,
        Dm   G7      A-G7-F#7
    y ¡Olé¡     y ¡Olé!;
        Bm             E7            A
    los ojos de la española que yo amé.
    
    A           C#m   A#7-A
    Yo    fui feliz,
    A         Bm     C#m-Cm       Bm  E7-F#7
    
  • Tablatura
       C     Cmaj7 C               G7                              C
    e.-----------------------------------------------------------------------
    a.-----------------------------------------------------------------------
    d.-----------------------------------------------------------------------
    g.-----------------------------------------------------------------------
    b.-(5)-5-6-------5-5-6---------3-5-(6)---3-3-5-(6)---3-3-5-6---------3-(5)
    e.--------(3)----------3-5-7-8-------------------------------3-5-7-8------
    
    
            Cmaj7         C7    F     Fm       C
    g.---------------------------------------------------
    b.-(5)-5-6------5-5-6--------3-1------6------0-------
    e.--------(3)---------3-5-7-8---(5)----(5)-----5-(3)-
    
    
        Dm7      G7       C
    g.----------------------------
    b.-5-6-6-5-3-1-0-0-1-3-0-(1)--
    e.----------------------------
    
    
  • +
    ¡Colabora con nosotros!
    Envíanos tu versión de esta canción

Letra de Ojos Españoles
Son, como el sol
como el azul de cielo y como el mar
son, del color
del clavel que empieza a despertar
Son, algo mas
que las estrellas al anochecer
ole!, y ole!
los ojos de la espanola que yo ame
Yo fui feliz
mirando aquellos ojos de mi amor
yo, nunca vi ni en el arcoiris
su color
Son algo mas
que las estrellas al anochecer
ole!...y ole!
los ojos de la espanola que yo ame
ojos de amor que nuca olvidare
Gracias, gracias. gracias..;D!



© LaCuerda.net · aviso legal · privacidad · contacto