Acordes de Guitarra » R »la Rondalla de Saltillo » Decídete (Tab)

Decídete
la Rondalla de Saltillo

Letras, Notas, Punteos, Tablaturas y Acordes de Guitarra (Tabs & Chords)

  • Letra y Acordes
    En tus manos está
    nuestra dicha o dolor
            17         3        2
    amorcito del alma,
    nadie más sólo tú
    es quien puede decir
                     1          3 - 2 
    la última palabra.
          1             4
    Decídete, decídete,
         3
    decídete
                        2
    a decir sí o no,
             9                   16
    a entregarme tu amor
                     15           10
    o llenarme de pena.
                             9
    El infierno es mejor
                       11
    a esta cruel situación
                    4         23 - 4
    de incertidumbre,
                              3
    de una vez por favor,
                                    2
    sea por bien o por mal
         1             4
    decídete, decídete,
         3        9 - 2 - 1
    decídete.
    
    1 -  DO 
    2 -  SOL7
    3 -  REm
    4 -  LA7
    9 -  FA 
    10 - Do7
    11 - Fam
    15 - Lam
    16 - Mi7
    17 - Do Dis.
    23 - La # M
    
    
    Ritmo:  Bolero.
  • Tablatura
    Bueno esta es mi primera transcripción y la quiero dedicar a
    Gabi.V.C, mi inspiración para tocar la guitarra.
    
    Intro
    e----------7—7s10--8--7-7-7-------------------
    B--8--10--------------------------------------esto se repite dos veces
    G---------------------------------------------
    D---------------------------------------------
    A---------------------------------------------
    E---------------------------------------------
    
    e---7-7-7-7--------------------
    B-------------10-8-------------
    G------------------------------
    D------------------------------
    A------------------------------
    E------------------------------
    
    Intermedio
    e----------7—7s10--8--7-7-7-------------------
    B--8--10--------------------------------------esto se repite dos veces
    G---------------------------------------------
    D---------------------------------------------
    A---------------------------------------------
    E---------------------------------------------
    
    e---10-10-10---8-8-8---------
    B----------------------8-----
    G
  • +
    ¡Colabora con nosotros!
    Envíanos tu versión de esta canción

Letra de Decídete
10 - Do7
11 - Fam
15 - Lam
16 - Mi7
17 - Do Dis.
23 - La # M
Ritmo: Bolero.

Videos de Decídete
[ver más videos]

[ver todas las canciones]


© LaCuerda.net · Aviso Legal · Privacidad