Acordes de Guitarra » R »los Rodriguez » Mi Enfermedad (Tab)

Mi Enfermedad
los Rodriguez

Letras, Acordes y Tabs para Guitarra, Bajo y Ukulele

  • Intro: D-D-G-A-D (x2)
    
    
                             G              A
    estoy vencido porque el mundo me hizo así
                 Bm
    no puedo cambiar
                          G          A  
    soy el remedio sin receta y tu amor 
           Bm   
    mi enfermedad
                              G           A
    estoy vencido porque el cuerpo de lo dos 
             Bm  
    es mi debilidad
          G        A         D             G
    esta vez el dolor va a terminar.
    
    
                    A      D               G
    
  • A)
    FA#m                        RE              MI            FA#m
    No estoy vencido por que el mundo me hizo asi y puedo cambiar
    FA#m                RE           MI           FA#m
    soy el remedio sin receta y tu amor mi enfermedad.
    FA#m                            RE           MI            FA#m
    no estoy vencido por que el cuerpo de los dos es mi debilidad
    RE         MI              LA
    Esta vez el dolor va a terminar.
    
    B)
    MI                 LA
    Parece que la fiesta termino
    RE          (MI)      LA
    cedimos(?) en el tunel del amor
    RE                   MI         FA#m
    y dicen las hojas del libro que mas leo yo:
    RE             MI        LA
    esta vez el esclavo se escapo.
    
    
  •    RE  SOL   LA  SIm  SI9  RE4 RE9
    e|-2----3----0----2----2----2----0-
    B|-3----0----2----3----2----3----2-
    G|-2----0----2----4----4----3----3-
    D|-0----0----2----4----4----0----0-
    A|-X----2----0----2----2----X----X-
    E|-X----3----X----X----X----X----X-
    
    ( V V A A V )
    V=rasgueo hacia abajo.
    A=rasgueo hacia arriba
    
    INTRO: RE      SOL   LA   SIm
    
    
    Estoy vencido porque el mundo me hizo así no puedo cambiar
     RE                       SOL          LA           SIm
    
    Soy el remedio sin receta y tu amor mi enfermedad
     RE                 SOL        LA              SIm
    
  • Intro: C-C-F-A-C (x2)
    
    
                             F              G
    estoy vencido porque el mundo me hizo así
                 Am
    no puedo cambiar
                          F          G
    soy el remedio sin receta y tu amor
           Am
    mi enfermedad
                              F           G
    estoy vencido porque el cuerpo de lo dos
             Am
    es mi debilidad
          F        G         C             F
    esta vez el dolor va a terminar.
    
    
                    G      C               F
    
  • Intro: D Dsus4 (4)
    
        G              A              [D  Dsus4]   x 2 
            
    e--------------------------------------------|
    B--12-10-12-10-12p14-12-10-12-10s3-3~--3-3~--|
    G--------------------------------------------| x 2
    D--------------------------------------------|
    A--------------------------------------------|
    E--------------------------------------------|
    
    Coro 1:
    
                             G              A               Bm
    Estoy vencido porque el mundo mi hizo así, no puedo cambiar.
                          G          A             Bm
    Soy el remedio sin receta y tu amor mi enfermedad.
                             G             A           Bm
    Estoy vencido porque el cuerpo de los dos es mi debilidad.
          G        A             D Dsus4 D Dsus4
    
  • Artist:     Los Rodriguez
    Song:       Mi Enfermedad
    Tabbed by:  Martìn Endara
    
    Intro (0:03)    p
    G------------------------
    D------------------------
    A-----3/4/5---0h5--------
    E-1/2/3-----------5--3---
    
    Coro (0:7)                                    p
    G---------------------------------------------------
    D---------------------------------------------------
    A-----0-00--5-55-55-5----------0-00--5-55-55-05-----
    E-3-33----------------753--3-33-----------------753-
                                      riff1
    G-------------------------        ---------
    D-------------------------        ---------
    A-------0-00-0--2-22-22-22 x3     -0h2-2/5-
    E-3-33-3------------------        ---------
    
    
    Esta vez el dolor...
    G---------------------------
    D---------------------------
    A-------0-00-0-5-55-55-55-5-
    E-3-33-3--------------------
    
    Verso (1:46)
    
    G---------------------------
    D---------------------------
    A-------0-00-0-5-55-55-55-5-
    E-3-33-3-------------------- X2
    
    G-------------------------
    D-------------------
  • Arreglo a C (DO)
    Aclaraciones: 
    		'..': indica el tiempo que se toca la nota.
    		(5)(5): Si las notas estan pegadas, quiere decir que se tocan casi simultáneamente
    
    -----------------------------------------------------------------------
    
    Casi al final
    
    ...Esta vez, la cadena se rompió...
    
    (5).. (5).. (5). (5). (5)... (5).. 5 4 3
    (5) 5  6....
    (5).. (5).. (5). (5). (5).. 5 6 5 7 
    (6). 6 (5)(5) //
    
    
    
    Ya al final, cuando dice:
    
    Esta vez el dolor va a terminar,
    Esta vez el dolor va a terminar.
    
    
    (5).. (5).. (5). (5). (5)... (5).. 5 43
    (5) (6) (5) 5 (5)//
    
    
    			
    Zippo 2002
  • +
    ¡Colabora con nosotros!
    Envíanos tu versión de esta canción
  • Tutorial
    HD
    COMO TOCAR MI ENFERMEDAD DE ANDRÉS CALAMARO LOS RODRIGUEZ TUTORIAL GUITARRA
    7:28

Letra de Mi Enfermedad
estoy vencido porque el mundo me hizo así
no puedo cambiar
soy el remedio sin receta y tu amor
mi enfermedad
estoy vencido porque el cuerpo de lo dos
es mi debilidad
esta vez el dolor va a terminar.
parece que la fiesta terminó
perdimos en el tunel del amor
y dicen las hojas del libro que más leo yo
esta vez el esclavo se escapó.
me entrego al vino porque el mundo me hecho asi
no puedo cambiar
soy el remedio sin receta y tu amor
estoy vencido por que el cuerpo de los dos
es mi debilidad
esta vez el dolor va a terminar.
en nuestro árbol una hoja se cayó
en mi boca la manzana se pudrió
tendrias que aprender a pedir perdón
esta vez la cadena se rompió




[Mi Enfermedad chords][Mi Enfermedad cifra]
© LaCuerda.net · aviso legal · privacidad · es · en · pt · contacto