Acordes de Guitarra » R »los Rodriguez » la Milonga del Marinero y el Capitán (Tab)

la Milonga del Marinero y el Capitán
los Rodriguez

Letras, Acordes y Tabs para Guitarra, Bajo y Ukulele

  • INTRO: B7 Em B7 Em (x2)
    
          B7
    El marinero y el capitán
          Em
    se reunieron en un bar,
          B7                  Em      
    y encargaron otra botella de ron.
    
    
           B7            
    Ese sería el puerto final,
            Em
    y lo fue tanto, de verdad,
               C                            B7
    que bajo el mar ahora descansan juntos los dos
    
    
     C               Bm
    Fue por una rubia loca
    
  • B7         Em                  B7           Em                 B7           C      B7        Em
    ------------------------------------------------------------------------------------------------------------------------------------------------------------------------------------------
    -------------------------------------------------------------------------------------------------------------------------------------------------------------------------------------------------
    ----------------------0------------------------------------------0-----------------------------------------0-----------------3---2--------0--------------------------------------------------
    -------------1------4---2-----------------------------1--------4---2---------------------------1-------4---2------------------1-------2--------------------------------
    -----------0---1---2--------------------2-----------0---1---2---------------------2---------0---1---2----------------------3-------------------------------------------------------------
    ---3-----------------------------------------------------------------------------------3--------------------------------------------------------------------------------------------
    
           B7                      Em
    El marinero y el capitan se reunieron en un bar
          B7                     Em 
    y encargaron otra botella de ron
           B7                        Em
    ese seria el puerto final y lo fue tanto de verdad
                 C                            B7
    que bajo el mar ahora descansan junto los dos
    
    Am7                B7
    Fue por una rubia loca
           G      A            D      C         D
    
  •         B7        Em         B7         Em
    E----------------------------------------------
    B----------------------------------------------
    G-------------0---------------------0----------
    D----------1----4-2--------------1----4-2------
    A---0-1-2-----------------0-1-2----------------
    E-4------------------0--4------------------0---
    
            B7        C       B7      Em
    E----------------------------------------------
    B----------------------------------------------
    G-------------0---------4-2-----0--------------
    D----------1----4-2----------1----2------------
    A---0-1-2------------3-------------------------
    E-4--------------------------------------------
    
    
           B7
    El marinero y el capitán
          Em
    
  •         B7                         Em
    E------------------------------------------------------
    B-----------------------5/7------------------------6/8-
    G-4-3-4-5-4-3-4-5-4-3-4------4-3-4-5-4-3-4-5-4-3-4-----
    D------------------------------------------------------
    A------------------------------------------------------
    E------------------------------------------------------
    
            B7                          Em 
    E------------------------------------------------------
    B-8-8-8-7--5--4^5^4------------------------------------
    G-------------------5-4--3-2----2-3-2------------------
    D-----------------------------5-------5-2---5-2---2----
    A-----------------------------------------5-----5------
    E------------------------------------------------------
    
       B7                          Em
    E----7------5------3-2---------------------------------
    B-----------------------5-4-5-4^5-----5-4-5-5-----5----
    G-/8----8\6----6\4-----------------4----------3^4------
    
  • +
    ¡Colabora con nosotros!
    Envíanos tu versión de esta canción

Letra de la Milonga del Marinero y el Capitán
El marinero y el capitán
se reunieron en un bar,
y encargaron otra botella de ron.
Ese sería el puerto final,
y lo fue tanto, de verdad,
que bajo el mar ahora descansan juntos los dos
Fue por una rubia loca
que bailaba sola hasta el amanecer.
Y se movía, pero tan bien,
que fue mirarla y fue perder
todo por ese cuerpo y esa promesa.
Ya no era joven pero era audaz
y bailaba siempre al compas;
no le importaba que se la echaran a suerte.
Llego la noche, llego el champagne,
llego la hora de la verdad
y esa apuesta, al final la gano la muerte.
Fue por una rubia loca...
Cuando el barco llega a la ciudad
las mujeres salen y los hombres solos
bajan a los bares, y esa noche todo vale!
Y sientes tu corazon
latir al ritmo de esta milonga
que es la milonga
del marinero y el capitan.
Fue por una rubia loca...




[la Milonga del Marinero y el Capitán chords][la Milonga del Marinero y el Capitán cifra]
© LaCuerda.net · aviso legal · privacidad · es · en · pt · contacto