Acordes de Guitarra » R »los Rodriguez » Aquí no podemos hacerlo (Tab)

Aquí no podemos hacerlo
los Rodriguez

Letras, Acordes y Tabs para Guitarra, Bajo y Ukulele

  • Dm Bb-C Dm Bb C   x 4
    
    
       F                        C
    Morena con la piel de chocolate
           F          Bb             C
    no dejaremos de ser dos amantes tu y yo
      Bb                  C             Dm
    siempre te llevo guardada muy cerca del corazon
            Bb                    C         Dm
    aunque digan que aquí no podemos hacerlo
    Bb                     C
    dicen que aquí no podemos hacerlo
    
    
     F                             C
    Nunca quise apurarte y que te quemes mal
         F          Bb            C
    mis dedos sólo sirven para tocarte a ti
        Bb                  C                 Dm
    
  •  F                        C
    Morena con la piel de chocolate
           F          Bb             C
    no dejaremos de ser dos amantes tu y yo
      Bb                  C             Dm
    siempre te llevo guardada muy cerca del corazon
            Bb                    C         F
    aunque digan que aquí no podemos hacerlo
    Bb                     C         F
    dicen que aquí no podemos hacerlo
    
    
     F                             C
    Nunca quise apurarte y que te quemes mal
         F          Bb            C
    mis dedos sólo sirven para tocarte a ti
        Bb                  C                 Dm
    un beso otro beso y la pena se va con el humo
       Bb                  C            F
    y dicen que aqui no podemos hacerlo
    
  • B/------------------------------------------6-----------5-8-8-8/6----5-5-8-8-8/6--------------
    G/-----------------------5-------------7---7--7-------7------------7--------------------------
    D/--3------3---------7-7---7-5/3---5/7----7----------------------------------------5/7-5------
    A/----3--5---5-3-5-----------------------------------------------------------------------8h5--
    E/--------------------------------------------------------------------------------------------
    
    
    F                 A#          C   A#
    Morena con la piel de chocolate
           F            A#               C   A#
    no dejaremos de ser dos amantes tu y yo
       A#             C                Dm
    siempre te llevo guardada muy cerca del corazon
             A#                   C       Dm
    Aunque digan que aqui no podemos hacerlo
    A#                     F
    dicen que aqui no podemos hacerlo
    
    e----------------
    B----------------
    
  •                Dm Bb-C Dm Bb C   x 4
    
    e/--------------------------------------------------|
    B/-----------------------------------------6--------|
    G/--------------------5-------------7--5/7---7-5-7--|
    D/-3-----3--------5/7---7-5/3---5/7-----------------|
    A/---3-5---5-3-5--------------5---------------------|
    E/--------------------------------------------------|
    
    e/--------------------------------------------------|
    B/-----8-8/6-----8-8-8-6----------------------------|
    G/-7/9-------5/7------------------------------------|
    D/------------------------5/7-5-3-------------------|
    A/--------------------------------5-----------------|
    E/--------------------------------------------------|
    
    Verso:
    F                 Bb          C
    Morena con la piel de chocolate
           F            Bb               C
    
  • +
    ¡Colabora con nosotros!
    Envíanos tu versión de esta canción

Letra de Aquí no podemos hacerlo
Morena con la piel de chocolate
no dejaremos de ser dos amantes tu y yo
siempre te llevo guardada muy cerca del corazon
aunque digan que aquí no podemos hacerlo
dicen que aquí no podemos hacerlo
Nunca quise apurarte y que te quemes mal
mis dedos sólo sirven para tocarte a ti
un beso otro beso y la pena se va con el humo
y dicen que aqui no podemos hacerlo
Riff: F C D F D C D
Creo que se como hacer para resistir al tiempo
se como hacer para olvidar el dolor
pero si dicen "aqui no puedo"
no creo yo que encuentre un motivo bueno
si dicen que aqui no podemos hacerlo
Riff: F C D F D C D
Voy a volver a los viejos lugares de antes
y voy a seguir buscandote por tu olor
he oido que dicen "aqui no podemos hacerlo"
dicen que aqui no podemos hacerlo los dos
hu hu
Dicen desconocidos que no podemos
la historia se escribe en hojas desordenadas
no puedo quedarme parado sin hacer nada
si dicen que aqui no podemos hacerlo
Riff: F C D F D C D
Creo que se como hacer para resistir al tiempo
se como hacer para olvidar el dolor
pero si dicen "aqui no puedo"
no creo yo que encuentre un motivo bueno
si dicen que aqui no podemos hacerlo
dicen que aquí no podemos hacerlo.
Riff: F C D F D C D
Levanta la voz si te dicen que hacer y que no hacer
cuanto mas grande es la pena, mas ruido va hacer al caer
No te voy a sacar de mis planes sólo porque digan "aqui no vale"
y vamos a seguir empezando de nuevo
aunque digan que aqui no podemos hacerlo
aunque digan que aqui no podemos hacerlo
aunque digan que aqui no podemos hacerlo
aunque digan que aqui no podemos hacerlo
aunque digan que aqui no podemos hacerlo
Riff 2: F C D F D C F
Ideal para tocar con un buen Hammond




[Aquí no podemos hacerlo chords][Aquí no podemos hacerlo cifra]
© LaCuerda.net · aviso legal · privacidad · es · en · pt · contacto