Acordes de Guitarra » R »Ricardo Arjona » Lo poco que tengo (Tab)

Lo poco que tengo
Ricardo Arjona

Letras, Acordes y Tabs para Guitarra, Bajo y Ukulele

  •   A                   E
    Yo tengo una guitarra vieja,
      D                  A
    Preñada con esta canción
       A                   E
    Amigos que nunca aconsejan,
      D                  A
    Y un beso a mi disposición
     E                      D                    A        E F#m D
    Lo poco que tengo es tan poco, que vale un millón
    
    
    A                   E
    Yo tengo el aire que respiro,
      D                  A
    Y el mar todito para mi
     A                   E
    Amores viejos y suspiros,
       D                   A
    Y si alguien dice "no" yo "si"
    
  •           A        E          F#m         D                 A
    1|-X-X---------------------------------------------------------
    2|-X-X------------------------------------2-3------3-3-2-0-----
    3|-X-X-----2-----4p6-4----1----------2---------------------2---
    4|-X-X---2-------------------2p4----------------------------2--
    5|-X-X-0-------------------------------------------------------
    6|-X-X---------------------------------------------------------
    
    
              E          F#m  D
    1|------------------------------
    2|---------------------2-3------
    3|--4p6-4---1-------------------
    4|--------------2p4-------------
    5|------------------------------
    6|------------------------------
    
    A                      E
    Yo tengo una guitarra vieja,
    D                    A
    
  •     12       C      G      F      C      G        C
    1|-X-X-----------------------------------------------------
    2|-X-X-----------------------------------------------------
    3|-X-X-----------------------------------------------------
    4|-X-X---------0/2--0-------3-3/2/0-----0/2--0---------2/3-
    5|-X-X-----0/3---------2/3-----------3-----------2---3-----
    6|-X-X-3-3-------------------------------------------------
    
    
    
    
       C                    G
    Yo tengo una guitarra vieja,
       F                  C
    Preñada con esta canción,
                          G
    Amigos que nunca aconsejan,
          F                 C
    Y un beso a mi disposición.
    
    
  • +
    ¡Colabora con nosotros!
    Envíanos tu versión de esta canción
  • Tutorial
    Como tocar Lo Poco Que Tengo - RICARDO ARJONA - Guitarra Tutorial COMPLETO (HD)
    Acustico
    9:25

Letra de Lo poco que tengo
Yo tengo una guitarra vieja,
Preñada con esta canción
Amigos que nunca aconsejan,
Y un beso a mi disposición
Lo poco que tengo es tan poco, que vale un millón
Yo tengo el aire que respiro,
Y el mar todito para mi
Amores viejos y suspiros,
Y si alguien dice "no" yo "si"
Lo poco que tengo es tan poco, que es también pa' ti
Las huellas de tus pies descalzos,
El humo de la cafetera
Tres cuadros surrealistas falsos,
Tu risa que trae primavera...aunque el tiempo este fatal
Lo poco que tengo es tan poco, pero es esencial
Tengo un aguacero para mi verano,
Y una ola para surfear
Una sombra que me sigue a donde voy,
Y dos pies pa' caminar
Lo poco que tengo es tan poco, que hay pa' regalar
Tengo la noticia de que no es noticia de que no me importa nada
Aprendí a graduarme en todo de aprendiz,
Y no imploro agua a pasar
Lo poco que tengo es tan poco, que me hace feliz
De lejos esta la fortuna,
De lo que venden en la tele
Si es gratis ir a ver la luna,
Que no se queje al que le duele
Lo poco que tengo es tan poco, que no hay quien me ordene
Tengo un reloj entre las nubes,
Un sueño que se va de fiesta
Tus pechos como dos querubes,
La tarde para ser la siesta...aunque el mundo este al revés
Lo poco que tengo es tan poco, que gana interés
Gracias...!!!




[Lo poco que tengo chords][Lo poco que tengo cifra]
© LaCuerda.net · aviso legal · privacidad · es · en · pt · contacto