Acordes de Guitarra » R »Ricardo Arjona » Dime que no (Tab)

Dime que no
Ricardo Arjona

  • Letra y Acordes
    INTRODUCCION:  C, G, Am, F, C, G, Am, G-C
    
    C               G                  Am
    Si me dices que si, piensalo dos veces;
    F                C                G
    puede que te convenga decirme que no.
    C               G                      Am
    Si me dices que no puede que te equivoques;
    F                 C                       G
    yo me dare a la tarea de que me digas que si.
    C                   G         Am                    Em
    Si me dices que si dejare de soñar me volvere un idiota,
    F              C             G                     F               F               
    mejor dime que no y dame ese si, como un cuenta gotas.
    Em       D                 Am
    Dime que no pensando en un si
                       Em
    y dejame lo otro a mi.
    F                    C 
    Que si se me pone facil
    
  • Letra y Acordes
     G/B      Fmaj7    E7/B   Dsus4    B7/D#
    cuerda   cuerda   cuerda  cuerda  cuerda
    654321   654321   654321  654321  654321 
    ------   ------   ------  ------  ------
    x20033   xx3210   x20130  xx0233  xx1202  
    traste   traste   traste  traste  traste
    
    (x cuerdas que no deben sonar)
    (===== 'cejilla')
      C#       G#       D#     A#m
    cuerda   cuerda   cuerda  cuerda  cuerda
    654321   654321   654321  654321  654321  
    ------   ------   ------  ------  ------
    x=====4  ======4  x=====6 x=====1 ======2
    x 666x    665     x 888   x 333    443
    traste   traste   traste  traste  traste
    
    Ahora si!
    Introducción:
    
    
  • Letra y Acordes
    C               G7                Am
    Si me dices que si, piensalo dos veces
    F                C                Gsus4
    puede que te convenga decirme que no
    C               G7                   Am
    si me dices que no, puede que te equivoques
    F                  C                       G7
    yo me dare a la tarea de que me digas que si.
    
    
    C                 G7              Am                  
    Si ma e dices que si dejare de soñar 
                      Em
    y me volvere un idiota
    F               C            FM7                C
    mejor dime que no y dame ese si como un cuenta gotas
              G7            A    
    dime que no pensando en si 
                Em  
    y dejame lo otro a mi
    
  • Letra y Acordes
    - C - G/B - Am - F - C - G/B - F - G - C -
    
    C                  G              Am
    Si me dices que si, piensalo dos veces
    F                C                G   G7
    puede que te convenga decirme que no
    C               G                    Am
    si me dices que no, puede que te equivoques
    F                  C                       G
    yo me dare a la tarea de que me digas que si.
    
    
    C                 G             Am
    Si me dices que si dejare de soñar
                      Em
    y me volvere un idiota
    F               C            G               C
    mejor dime que no y dame ese si como un cuenta gotas
              G            Am
    dime que no pensando en si
    
  • Tablatura
       C         G          Am           C
    e-------0-3--3----------0-------0-----------------
    B-1------------3---3/5----1---3---0--1------------
    G---0------------0----------2------------0-0h2p0--
    D-----2--------------------------------2----------
    A-3---------------------0------------3------------
    E------------3------------------------------------
      C                G                 C
    e----------3-3/5-3----------------------
    B-1-----3/5--------3-----------3/5---1--
    G---0------------------0-0h2p0-------0--
    D-----2--------------2------------------
    A-3----------------------------------3--
    E------------------3--------------------
    
    (los riffs se tokan kuando va a empezar a tokar el arpegio)
    
    Riff 1           Riff 2      Riff 3
    
    e-----------    e-----0-    e-0--0h1p0---
    
  • Tablatura
    ROSALINDA UNA CANCION MAS DEDICADA A TI :-) Te quiero.
    
    'la tab fue complicada pero a hi esta ,, despues de varios meses de trabajo'   
                                                                          
    E||--0-----0-----0--|----------------|--0-----0------|------------------|
    B||--------1---1----|--3-----3-----0-|--1-----1------|--1-----1-------1-|
    G||--0--0----0------|-----0--4-0-----|--2--2---------|--2---2-------2---|
    D||-----------------|----------------|---------------|--3-3-------3-----|
    A||--3---------3----|--2---------2---|--0-------0----|------------------|
    E||-----------------|----------------|------------3--|--1-------1-------|
    
    
                                                                         
    --0-----0--------|----------------|-----------------|--0-----0------|
    --------1-----1--|--3-----3-------|--1-----3---0-3--|--1-----1------|
    --0--0------0----|--4--0--4----0--|--2-------0------|--0--0-------0-|
    -----------------|--5-------------|--3--3----------
  • +
    ¡Colabora con nosotros!
    Envíanos tu versión de esta canción
  • Tutorial
    HD
    Dime que no - Ricardo Arjona - Como tocar en guitarra acordes
    3:48

Letra de Dime que no
Si me dices que si, piensalo dos veces;
puede que te convenga decirme que no.
Si me dices que no puede que te equivoques;
yo me dare a la tarea de que me digas que si.
Si me dices que si dejare de soñar me volvere un idiota,
mejor dime que no y dame ese si, como un cuenta gotas.
Dime que no pensando en un si
y dejame lo otro a mi.
Que si se me pone facil
el amor se hace fragil y uno para de soñar.
Dime que no,
y deja la puerta abierta.
Dime que no
y me tendras pensando todo el dia en ti,
planeando la estrategia para un si.
Dime que no
y lanzame un si camuflajeado,
clavame una duda
y me quedare a tu lado.
Si me dices que si se fugara lo incierto,
y esa cosquilla en la panza cuando estas por venir.
Si me dices que no seguire conquistando,
descubriendote cosas que ni tu te conoces.
Dime que no
y me tendras pensando todo el dia en ti,
planeando la estrategia para un si.
Dime que no
y lanzame un si camuflajeado,
clavame una duda
y me quedare a tu lado.
Siempre lo facil me duro tan poco,
y no lo niego me diverti.
Pero la soledad me ha vuelto loco,
porque el amor nunca ha pasado por aqui.
Dime que no ("slide")
y me tendras pensando todo el dia en ti,
planeando la estrategia para un si.
Dime que no
y lanzame un si camuflajeado,
clavame una duda
y me quedare a tu lado.
Dime que no
y me tendras pensando todo el dia en ti,
planeando la estrategia para un si.
Dime que no
y lanzame un si camuflajeado,
clavame una duda
y me quedare a tu lado.
2DO SOLO:
Dime que no...uhhh....... (Coristas)



© LaCuerda.net · aviso legal · privacidad · contacto