Acordes de Guitarra » R »Ricardo Arjona » Desnuda (Tab)

Desnuda
Ricardo Arjona

Letras, Acordes y Tabs para Guitarra, Bajo y Ukulele

  •           G                      C                    D
    E---------------------¦---------------------¦---------------------¦
    B-----------3--------3¦-----------3--------3¦-----------3--------3¦
    G--------0-----0------¦--------0-----0------¦--------2-----2------¦
    D-----0-----------0---¦-----2-----------2---¦-----0-----------0---¦
    A---------------------¦--3------------------¦--0------------------¦
    E--3------------------¦---------------------¦---------------------¦
    
    
             Em
    E---------------------¦
    B-----------3--------3¦
    G--------0-----0------¦
    D-----2-----------2---¦
    A---------------------¦
    E--0------------------¦
    
    
    Intro [G C x 2   G D Em C  G D Em C-G-D]
    
    
  •           G                      C                    D
    E---------------------¦---------------------¦---------------------¦
    B-----------3--------3¦-----------3--------3¦-----------3--------3¦
    G--------0-----0------¦--------0-----0------¦--------2-----2------¦
    D-----0-----------0---¦-----2-----------2---¦-----0-----------0---¦
    A---------------------¦--3------------------¦--0------------------¦
    E--3------------------¦---------------------¦---------------------¦
    
    
             Em
    E---------------------¦
    B-----------3--------3¦
    G--------0-----0------¦
    D-----2-----------2---¦
    A---------------------¦
    E--0------------------¦
    
    
    Intro [G C x 2   G D Em C  G D Em C-G-D]
    
    
  • |---------------|---------------|---------------|---------------|/3-3-----------|/3-2-2-2-0-----|-0-------------|
    |-------3-----3-|-------3-------|-------3-----3-|-------3-------|/3-3-0-0-0-1-3-|/5-3-3-3-1-3---|-1-3-0---------|
    |-----0---0-----|---0-----0---0-|---0-----0-----|---0-----0---0-|-----0-0-0-2-4-|-----------4---|---4-0---------|
    |---0-------0---|-----2-----2---|-----0-----0---|-----2-----2---|---------------|---------------|---------------|
    |---------------|-3-------------|---------------|-3-------------|---------------|---------------|---------------|
    |-3-------------|---------------|-3-------------|---------------|---------------|---------------|---------------|
    
    
    |---------------|/3-3-----------|/3-2-2-2-0-----|-0-------------|
    |-------3-------|/3-3-0-0-0-1-3-|/5-3-3-3-1-3---|-1-3-0---------|
    |---0-----0---0-|-----0-0-0-2-4-|-----------4---|---4-0---------|
    |-----2-----2---|---------------|---------------|---------------|
    |-3-------------|---------------|---------------|---------------|
    |---------------|---------------|---------------|---------------|
    
    
    
    
    
    
    
  • |---------------|---------------|---------------|---------------|---------------|---------------|---------------|
    |-------3-----3-|-------3-------|-------3-----3-|-------3-------|-------3-------|-------3-------|-------3-------|
    |-----0---0-----|---0-----0---0-|---0-----0-----|---0-----0---0-|---0-----0---0-|---2-----2---0-|---0-----0---0-|
    |---0-------0---|-----2-----2---|-----0-----0---|-----2-----2---|-----0-----0---|-----0-----0---|-----2-----0---|
    |---------------|-3-------------|---------------|-3-------------|---------------|---------------|---------------|
    |-3-------------|---------------|-3-------------|---------------|-3-------------|-2-------------|-0-------------|
    |
    |
    | Gtr II
    |
    |-----------------------------------------------|----------/3---|-3-------------|/3-2-2-2-------|---------------|
    |-----------------------------------------------|----------/3---|-3-0-0-0-1-3---|/5-3-3-3-5-3---|/5-3-0---------|
    |-----------------------------------------------|---------------|---0-0-0-2-4---|---------5-4---|/5-4-0---------|
    |-----------------------------------------------|---------------|---------------|---------------|---------------|
    |-----------------------------------------------|---------------|---------------|---------------|---------------|
    |-----------------------------------------------|---------------|---------------|---------------|---------------|
    
    
    | Gtr I
    
    
  • Esta Cancion se toca con un Bajo de 6 Cuerdas y la afinacion es normal(B E A D G B) 
    Empezamos!!
    
    Al principio el bajo esta callado y despues inicia con:
      Q=66
     4/4
    
    
      W          E S S +S  E. E S S S S S S
    |----------|----------------------------|
    |----------|----------------------------|
    |----------|----------------------------|
    |----------|----------------------------|
    |----------|----------------------------|
    |----------|-----1-(1)-1--1-1-1-1-1-1-1-|
    
    
      E. S +E. S E. S +E. S   E. S +E. S E. S +E. S
    |-----------------------|-----------------------|
    |-----------------------|-----------------------|
    |-5--5-(5)-5-0--0-(0)-0-|------------5--5-(5)-5-|
    |-----------------------|-----------------------|
    |-----------------------|-----------------------|
    |-----------------------|-1--1-(1)-1------------|
    
    
      E. S +E. S S S S S E. S   +E. S E. S +E. S E. S
    |-------------------------|-----------------------|
    |-------------------------|-----------------------|
    |-0--
  • +
    ¡Colabora con nosotros!
    Envíanos tu versión de esta canción
  • Tutorial
    Como tocar Desnuda de mama pulpa - dash
    12:09

Letra de Desnuda
No es ninguna aberracion sexual
pero me gusta verte andar en cueros;
el compas de tus pechos aventureros
victimas de la gravedad
Sera por que no me gusta la tapiceria
que creo que tu desnudes es tu mejor lenceria
Por eso es que me gusta tal y como eres;
incluso ese par de libras de mas
Si te viese tu jefe desnuda y detras
no dudaria en promover tu cintura
Deja llenarme de tu desnudez
para afrontar los disfraces de afuera
de una mejor manera
Desnuda que no habra diseño que te quede mejor
que el de tu piel ajustada a tu figura
Desnuda que no hay un ingenuo que vista una flor
seria como taparle la hermosura
Desnuda que la naturaleza no se equivoca
y si te hubiese querido con ropa
con ropa hubieses nacido
Deja llenarme de tu desnudez
para vestirme por dentro
aunque sea un momento
Y ahora que por fin te tengo asi
desnuda y precisamente en frente;
desnuda tambien un poquito la mente
con tus complejos junto a tu ropa;
y si te sientes un poquito loca
ponte loca completa,
que verte sera solo el inicio
antes de perder el juicio
Desnuda que no habra diseño que te quede mejor
que el de tu piel ajustada a tu figura
Desnuda que no hay un ingenuo que vista una flor
seria como taparle la hermosura
Desnuda que la naturaleza no se equivoca
y si te hubiese querido con ropa
con ropa hubieses nacido
Deja llenarme de tu desnudez
para vestirme por dentro
aunque sea un momento




[Desnuda chords][Desnuda cifra]
© LaCuerda.net · aviso legal · privacidad · es · en · pt · contacto