Acordes de Guitarra » R »Ricardo Arjona » Minutos (Tab)

Minutos
Ricardo Arjona

Letras, Acordes y Tabs para Guitarra, Bajo y Ukulele

  •                   B   F#
    Quien te dijo que yo
                       G#m        E
    era el sueño que soñaste una vez?
                   B  F#
    quien dijo que tu
                   G#m         E
    voltearías mi futuro al revés?
        B        F#        G#m               E
    ya son las 7:16 y el cadáver del minuto que pasó
            B             F#
    me dice tu estrategia te arruinó
             G#m              E             B     F#  G#m
    no queda más que ir aprendiendo a vivir solo,
           E       B      F#  G#m  E
    si te quedan agallas
    
    
    (Aqui se detiene el arpegeo de la 1ª guitarra)
    
    
  • -----------------------------------------------------------
    
    El reloj de pared, anunciando las 6:23,
    el pasado con sed y el presente es un atleta sin pies
    ya son las 6:43 y el cadáver del minuto que pasó
    me dice así se vive aquí te guste o no
    y la nostalgia pone casa en mi cabeza,
    y dan las 6 con 50.
    Quien te dijo que yo era el sueño que soñaste una vez?
    quien dijo que tu voltearías mi futuro al revés?
    ya son las 7:16 y el cadáver del minuto que pasó
    me dice tu estrategia te arruinó
    no queda más que ir aprendiendo a vivir solo,
    si te quedan agallas...
    
    Para Ro...
    
    SOL#m                RE#m MI                        SI SIb
      La casa no es otra cosa   que un cementerio de historias
    SOL#m         RE#m  MI                     FA#
    
  •          intro B,G#m,E
                   B
    el reloj de pared
                 G#m   E
    anunciando las 6:23.
                   B
    el pasado con sed,
                         G#m        E
    y el presente es un atleta sin pies.
        B
    ya son las 6:43
           G#m               E
    y el cadáver del minuto que pasó.
            B
    me dice así se vive aquí te guste o no.
           G#m           E            B
    y la nostalgia pone casa en mi cabeza.
    G#m       E      B   intro
    y dan las 6 con 50.
    
    
  •  intro B, F#, G#m, E
                   B
    el reloj de pared
      F#           G#m   E
    anunciando las 6:23.
                   B
    el pasado con sed,
        F#                 G#m        E
    y el presente es un atleta sin pies.
        B        F#
    ya son las 6:43
           G#m               E
    y el cadáver del minuto que pasó.
            B                    F#
    me dice así se vive aquí te guste o no.
           G#m           E            B    F# G#m
    y la nostalgia pone casa en mi cabeza.
           E      B    intro
    y dan las 6 con 50.
    
    
  • E-------------------2-----------------4-------------------0---------------|
    A--2----------------------------------------------------------------------|
    D------4-------4---------4--------4--------4---------4--------4--------4--|
    g-------------------------------------------------------------------------|
    b-----------0-----------------0-----------------0------------------0------|
    e-------------------------------------------------------------------------|
    
    
    E-------------------2-----------------4-------------------0--------------|
    A--2---------------------------------------------------------------------|
    D------4-------4---------4--------4--------4---------4--------4--------4-|
    g------------------------------------------------------------------------|
    b-----------0-----------------0-----------------0------------------0-----|
    e------------------------------------------------------------------------|
                                                                 El reloj de
    E-------------------2-----------------4-------------------0--------------|
    A--2---------------------------------------------------------------------|
    D------4-------4---------4--------4--------4---------4--------4--------4-|
    g------------------------------------------------------------------------|
    b-----------0-----------------0-----------------0------------------0-----|
    
  • Artista: Ricardo Arjona
    Album: Santo Pecado
    Canción: Minutos
    
    Esta Tablatura de Bajo Se La De Dedico a una Persona Especial
           << Nancy Yanin Figueroa Rosas >>
    Donde Estes Siempre Te Amare ...
    
    
    el bass inicia en ya son las 6:43...
    escuestion de que escuches la rola y oigas bien donde va el bajo
    
    <<  X2  >>
    A -2--------2-----------2-2----------
    E ---2-4-0----2-1-4-3-0-----2-1-4-0--
    
    A -2-2-2---------------------2-2-2--------------------
    E -------2-1-1-4-3-3-0-0-0-0-------2-1-1-4-3-0-0-0-2--
    
     <<            ESTE TAB X3      >>
    A -2-2-2-2------------------------------
    E ---------2-1-1-1-4-3-3-3-0-0-0-0--0---
    
    INTERMEDIO MUSICAL
    A -2-2-2-2-----------------------------
    E ---------2-1-1-1-4-3-3-3-0-0-0-0-----
    
    D -------2-2-2-2-----------------------------
    A ---6-----------2-1------6------------------
    E -4---3--------------4-3---0-0-0-0-2-1-1-1--
    
    A -------4---2-22-2---2-1-2-2-2-2-----------------------4-4---2-2-2-2---2--
    E -1-1-1---1--------2--------
  • +
    ¡Colabora con nosotros!
    Envíanos tu versión de esta canción
  • Tutorial
    Como tocar "Minutos" (How to play /Tutorial)
    de Ricardo Arjona
    2:16
  • Tutorial
    Como tocar minutos de Ricardo Arjona
    0:39

Letra de Minutos
El reloj de pared, anunciando las 6:23,
el pasado con sed y el presente es un atleta sin pies
ya son las 6:43 y el cadáver del minuto que pasó
me dice así se vive aquí te guste o no
y la nostalgia pone casa en mi cabeza,
y dan las 6 con 50.
Quien te dijo que yo era el sueño que soñaste una vez?
quien dijo que tu voltearías mi futuro al revés?
ya son las 7:16 y el cadáver del minuto que pasó
me dice tu estrategia te arruinó
no queda más que ir aprendiendo a vivir solo,
si te quedan agallas...
Para Ro...
La casa no es otra cosa que un cementerio de historias
enterradas en fozas que algunos llaman memorias
Minutos, como sale la herida! se me pasa la vida gastando el reloj
Minutos son la morgue del tiempo, cadáveres de momentos que no vuelven jamás
No hay reloj que de vuelta hacia atrás...
Como duele gastar el instante en el que tu ya no estás!
como cuesta luchar con las cosas que no vuelven mas!
ya son las 9:23 y el cadáver del minuto que paso
se burla de mis ganas de besar la foto que dejaste puesta en el bureau,
mi soledad es tu venganza
el ministerio del tiempo puso sede en almohada ahí te encuentro a momentos
aunque no sirve de nada
Minutos, como sale la herida! se me pasa la vida gastando el reloj
Minutos son la morgue del tiempo, cadáveres de momentos que no vuelven jamás
No hay reloj que de vuelta hacia atrás...
Minutos que se burlan de mi, minutos como furia del mar
minutos pasajeros de un tren que no va al mismo lugar.
Minutos como lluvia de sal, minuto como fuego en la piel,
minutos forasteros que vienen y se van sin decir,
minutos que me duelen sin ti, minutos que no pagan pension,
minutos que al morir formaran el batallon del ayer
minutos que se roban la luz, minutos que me oxidan la fé,
minutos inquilinos del tiempo mientras puedan durar,
minutos que disfrutan morir, minutos que no tienen lugar
minutos que se estrellan en mi: son kamikazes de Dios.




[Minutos chords][Minutos cifra]
© LaCuerda.net · aviso legal · privacidad · es · en · pt · contacto