Acordes de Guitarra » R »Ricardo Arjona » Te Conozco (Tab)

Te Conozco
Ricardo Arjona

Letras, Acordes y Tabs para Guitarra, Bajo y Ukulele

  • A                   E
    Te conozco desde el pelo
             Gm           E
    hasta la punta de los pies
           D              C7
    se que roncas por las noches
          D          Gm
    y que duermes de revés
                     Cadd9
    se que dices que tienes veinte
           D      A     E
    cuando tienes veintitrés.
    
    A                 E
    Te conozco cuando ríes
          Gm        E
    y tus gestos al amar
          D           C7
    se de aquella cirugía
             D               Gm
    
  •             D                        E
    eI--------0------------/----------0-------------/
    BI------3---3-------7.-/--------3---3-----8-7.--/
    GI----2-------2>--7----/------1-------1>7-------/
    DI---------------------/----0-------------------/
    AI---------------------/--2---------------------/
    EI--2------------------/------------------------/
    
               D                 E                D
    eI------------------/------------------/-------------
    BI--------5-----7.--/--------5-----7.--/--------5----
    GI------7---7-------/------7---7-------/------7------
    DI----7-------7-----/----6-------6-----/----7--------
    AI--5---------------/--7---------------/--5----------
    EI------------------/------------------/-------------
    
    
          A             E
    Te conozco desde el pelo
             F#m          C#m
    
  • Ejemplo:  (A)
    
    e---------------------------|
    B--------- 2 ---------------|
    G--------- 2 ---------------|
    D------ 2 --- 2 ------------|
    A---- 0 --------------------|
    E---------------------------|
    
    (Arpegio)
    
         A               E
    Te conozco desde el pelo
             F#m          E
    hasta la punta de los pies
           D               C#7
    sé que roncas por las noches
         (C#7/G#)    F#m
    y que duermes de revés
            B9                B7
    
  •       A#             F
    Te conozco desde el pelo
             Gm          Dm
    hasta la punta de los pies
           D#               Dm
    se que roncas por las noches
           D         Gm
    y que duermes de revés
            C
    se que dices que tienes veinte
             A#    C     F
    cuando tienes veintitrés.
    
          A#            F
    Te conozco cuando ríes
            Gm       Dm
    y tus gestos al amar
           D#         Dm
    se de aquella cirugía
             D               Gm
    
  •  E]-----------------------------------------------------------------------------------------]
     A]-----------------------------------------------------------------------------------------]
     D]-----------------------------------------------------------------------------------------]
     G]--3-5-6-8-10-(10)---3-5-6-8-10-(6)---3-5-6-8-10------------------------------------------]
     B]------------------------------------------------13/14--16-11--11-11h9-9-9-7-7-2-4-6-7-6--]
     e]-----------------------------------------------------------------------------------------]
    
       
            A             E
    Te conozco desde el pelo
    
              F#m          E
    hasta la punta de los pies 
    
            D              C#7
    sé que roncas por las noches 
    
                        F#m
    y que duermes de reves
    
    
  •  E]-----------------------------------------------------------------------------------------]
     A]-----------------------------------------------------------------------------------------]
     D]-----------------------------------------------------------------------------------------]
     G]--3-5-6-8-10-(10)---3-5-6-8-10-(6)---3-5-6-8-10------------------------------------------]
     B]------------------------------------------------13/14--16-11--11-11h9-9-9-7-7-2-4-6-7-6--]
     e]-----------------------------------------------------------------------------------------]
    
    ...en libertad.
    
    1er. solo
                                                                                    ]
     E]-----------------------------------------------------------------------------]
     A]-----------------------------------------------------------------------------]
     D]---------12----12------------------------------------------------------------]
     G]--(10)------10----12----------12-----------------------12--------------------]
     B]---------------------9/10--------10--------------(10)-----10-----------------]
     e]------------------------------------12/14-12/14--------------9/11-9/11--9----]
                                                                                    ] 
    
    ...en libertad.
    
  • +
    ¡Colabora con nosotros!
    Envíanos tu versión de esta canción
  • Tutorial
    HD
    Como tocar - Te conozco - Ricardo Arjona
    4:52
  • Tutorial
    Te conozco - Arjona - Como tocar en guitarra
    4:41

Letra de Te Conozco
Te conozco desde el pelo
hasta la punta de los pies
se que roncas por las noches
y que duermes de revés
se que dices que tienes veinte
cuando tienes veintitrés.
Te conozco cuando ríes
y tus gestos al amar
se de aquella cirugía
que a nadie le has de contar.
Se que odias la rutina
un poco mas que a la cocina.
ESTRIBILLO:
Dime si el te conoce la mitad
dime si el tiene la sensibilidad
de encontrar el punto exacto
donde explotas al amar.
dime si el te conoce la mitad
dime si el te ama la mitad
de lo que te ama este loco
que dejaste en libertad.
REPITE MISMOS ACORDES...
Reconozco lo que piensas
antes que empieces a hablar
se de tus ciento cincuenta
dietas para adelgazar
sé que padeces de insomnio
y que fumas sin parar.
Imagino esas charlas
que en mi honor han de entablar
y hasta sé lo que este viernes
le has de hacer para cenar,
y es que tanto te conozco
que hasta sé me has de extrañar.
ESTRIBILLO:
Dime si el te conoce la mitad
dime si el tiene la sensibilidad
de encontrar el punto exacto
donde explotas al amar.
dime si el te conoce la mitad
dime si el te ama la mitad
de lo que te ama este loco
que dejaste en libertad.
y es que tanto te conozco
que hasta podría jurar
te mueres por regresar.




[Te Conozco chords][Te Conozco cifra]
© LaCuerda.net · aviso legal · privacidad · es · en · pt · contacto