Tablatura para Guitarra de Ricardo Arjona: Desnuda
Conexión · Inscripción
Letras y Acordes
Pantalla Completa
Imprimir
Versión Texto
Añadir Favorito
Otras Versiones

Mostrar Diagramas
Desfile Automático
Manipular Acordes
Formato del Texto


Desnuda(TAB)

Ricardo Arjona

calidad:
rarj0214
AUTOR: Ricardo Arjona
ALBUM: Sin Danos a Terceros
Enviado por Daniel
Intro


|---------------|---------------|---------------|---------------|/3-3-----------|/3-2-2-2-0-----|-0-------------|
|-------3-----3-|-------3-------|-------3-----3-|-------3-------|/3-3-0-0-0-1-3-|/5-3-3-3-1-3---|-1-3-0---------|
|-----0---0-----|---0-----0---0-|---0-----0-----|---0-----0---0-|-----0-0-0-2-4-|-----------4---|---4-0---------|
|---0-------0---|-----2-----2---|-----0-----0---|-----2-----2---|---------------|---------------|---------------|
|---------------|-3-------------|---------------|-3-------------|---------------|---------------|---------------|
|-3-------------|---------------|-3-------------|---------------|---------------|---------------|---------------|


|---------------|/3-3-----------|/3-2-2-2-0-----|-0-------------|
|-------3-------|/3-3-0-0-0-1-3-|/5-3-3-3-1-3---|-1-3-0---------|
|---0-----0---0-|-----0-0-0-2-4-|-----------4---|---4-0---------|
|-----2-----2---|---------------|---------------|---------------|
|-3-------------|---------------|---------------|---------------|
|---------------|---------------|---------------|---------------|






      No es ninguna aberración sexual               Pero me gusta verte andar en cueros. El compás de tus pechos 
|---------------|---------------|---------------|---------------|---------------|---------------|---------------|
|-------3-------|-------3-------|-------3-------|-------3-------|-------3-------|-------3-------|-------3-------|
|---0-----0---0-|---2-----2---0-|---0-----0---0-|---0-----0---0-|---0-----0---0-|---0-----0---0-|---2-----2---0-|
|-----0-----0---|-----0-----0---|-----2-----0---|-----2-----2---|-----0-----0---|-----0-----0---|-----0-----0---|
|---------------|---------------|---------------|-3-------------|---------------|---------------|---------------|
|-3-------------|-2-------------|-0-------------|---------------|-3-------------|-3-------------|-2-------------|


  aventureros. Víctimas de la gravedad                                  Será porque no me gusta la tapicería
|---------------|---------------|-------|---------------|-------2-0-------|---------------|---------------|
|-------3-------|-------3-------|-------|-------3-------|-----3-----3-----|-------3-------|-------0---0---|
|---0-----0---0-|---0-----0---0-|-0---0-|---0-----0---0-|---2-----------2-|---0-----0---0-|---0---------2-|
|-----2-----0---|-----2-----2---|---2---|-----0-----0---|-0-----------0---|-----2-----2---|-----0---------|
|---------------|-3-------------|-------|---------------|-----------------|-3-------------|---------2-----|
|-0-------------|---------------|-------|-3-------------|-----------------|---------------|-3-------------|


                que creo que tu desnudez es tu mejor lencería.
|---------------|---------------|---------------|--------------|--------|
|-------0-------|-------3-------|---3------3----|------3-----3-|------3-|
|---0-----0---0-|---0-----0---0-|-----0------2--|--0-----0-----|-0------|
|-----2-----0---|-----2-----2---|--------0------|----2-----2---|---2----|
|---------------|-3-------------|---------------|3-------------|--------|
|-0-------------|---------------|-3-------------|--------------|--------|


    Por eso es que me gustas tal y como eres          incluso ese par de libras de más.  Si te viese tu jefe desnuda 
|---------------|---------------|---------------|---------------|---------------|---------------|---------------|
|-------3-------|-------3-------|-------3-------|-------3-------|-------3-------|-------3-------|-------3-------|
|---0-----0---0-|---2-----2---0-|---0-----0---0-|---0-----0---0-|---0-----0---0-|---0-----0---0-|---2-----2---0-|
|-----0-----0---|-----0-----0---|-----2-----0---|-----2-----2---|-----0-----0---|-----0-----0---|-----0-----0---|
|---------------|---------------|---------------|-3-------------|---------------|---------------|---------------|
|-3-------------|-2-------------|-0-------------|---------------|-3-------------|-3-------------|-2-------------|


 y detrás             no dudaría en promover tu cintura.              Deja llenarme de tu desnudez
|---------------|---------------|--------------|-------2-0-------|---------------|---------------|
|-------0-------|-------3-------|------3-------|-----3-----3-----|-------3-------|-------0---0---|
|---0-----0---0-|---0-----0---0-|--0-----0---0-|---2-----------2-|---0-----0---0-|---0---------2-|
|-----2-----0---|-----2-----2---|----0-----0---|-0-----------0---|-----2-----2---|-----0---------|
|---------------|-3-------------|--------------|-----------------|-3-------------|---------2-----|
|-0-------------|---------------|-3------------|-----------------|---------------|-3-------------|


            para afrontar los disfraces de afuera de una mejor manera.
|---------------|---------------|---------------|-2-------------|-0-------------|---------5-5-5-|-5\3-3-0-0-3---|
|-------0-------|-------3-------|-------3-------|-1-------------|-1-------------|---------5-5-5-|-5\3-3-0-0-3---|
|---0-----0---0-|---0-----0---0-|---0-----0---0-|-2-------------|-0-------------|---------0-0-0-|-0---0-0-0-0---|
|-----2-----0---|-----2-----2---|-----0-----0---|-0-------------|-2-------------|---------------|---------------|
|---------------|-3-------------|---------------|---------------|-3-------------|---------------|---------------|
|-0-------------|---------------|-3-------------|---------------|-0-------------|---------------|---------------|





G D C G D Desnuda que no habrá diseño que te quede mejor que el de tu piel ajustada a tu figura.
G D C G D Desnuda que no hay un ingenuo que vista a una flor sería como taparle la hermosura.
Em D C G B7 Em Desnuda que la naturaleza no se equivoca y si se hubiese querido con ropa con ropa hubieses nacido,
C G B7 Em Deja llenarme de tu desnudez para vestirme por dentro
C aunque sea un momento. |----------------|---------------|---------------|----------------| |º-------3-----3-|-------3-------|-------3-----3-|-------3-------º| |------0---0-----|---0-----0---0-|---0-----0-----|---0-----0---0--| |----0-------0---|-----2-----2---|-----0-----0---|-----2-----2----| |º---------------|-3-------------|---------------|-3-------------º| |--3-------------|---------------|-3-------------|----------------| Y ahora que por fin te tengo así Desnuda y precisamente en frente. Desnuda también un poquito la |---------------|---------------|---------------|---------------|---------------|---------------|---------------| |-------3-------|-------3-------|-------3-------|-------3-------|-------3-------|-------3-------|-------3-------| |---0-----0---0-|---2-----2---0-|---0-----0---0-|---0-----0---0-|---0-----0---0-|---0-----0---0-|---2-----2---0-| |-----0-----0---|-----0-----0---|-----2-----0---|-----2-----2---|-----0-----0---|-----0-----0---|-----0-----0---| |---------------|---------------|---------------|-3-------------|---------------|---------------|---------------| |-3-------------|-2-------------|-0-------------|---------------|-3-------------|-3-------------|-2-------------| mente, pon tus complejos junto de tu ropa, y si te sientes un poquito loca ponte loca |---------------|---------------|---------------|-------2-0-------|---------------|---------------|---------------| |-------3-------|-------3-------|-------3-------|-----3-----3-----|-------3-------|-------0-------|-------0-------| |---0-----0---0-|---0-----0---0-|---0-----0---0-|---2-----------2-|---0-----0---0-|---0-----0---0-|---2-----2---2-| |-----2-----0---|-----2-----2---|-----0-----0---|-0-----------0---|-----2-----2---|-----0-----0---|-----1-----1---| |---------------|-3-------------|---------------|-----------------|-3-------------|---------------|-2-------------| |-0-------------|---------------|-3-------------|-----------------|---------------|-3-------------|---------------| completa que verte será sólo el inicio ante de perder el juicio. |---------------|---------------|---------------|-2------------|-0-------------|---------5-5-5-|-5\3-3-0-0-3---| |-------0-------|-------3-------|-------3-------|-1------------|-1-------------|---------5-5-5-|-5\3-3-0-0-3---| |---0-----0---0-|---0-----0---0-|---0-----0---0-|-2------------|-0-------------|---------0-0-0-|-0---0-0-0-0---| |-----2-----0---|-----2-----2---|-----0-----0---|-0------------|-2-------------|---------------|---------------| |---------------|-3-------------|---------------|--------------|-3-------------|---------------|---------------| |-0-------------|---------------|-3-------------|--------------|-0-------------|---------------|---------------|
G D C G D Desnuda que no habrá diseño que te quede mejor que el de tu piel ajustada a tu figura.
G D C G D Desnuda que no hay un ingenuo que vista a una flor sería como taparle la hermosura.
Em D C G B7 Em Desnuda que la naturaleza no se equivoca y si se hubiese querido con ropa con ropa hubieses nacido,
C G B7 Em Deja llenarme de tu desnudez para vestirme por dentro
C aunque sea un momento. Aunque sea un momento |-------3-------|-------3-------|-------3-------|-------3--------| |-------3-------|-------3-------|-------3-------|-------3-------º| |-----0---0---0-|---2-----2---0-|---0-----0---0-|---2-----2---0--| |---0-------0---|-----0-----0---|-----2-----0---|-----0-----0---º| |---------------|---------------|---------------|----------------| |-3-------------|-2-------------|-0-------------|-2--------------| |---------------|---------------|---------------|---------------| |-------3-------|-------3-------|-------3-------|-------3-------| |---0-----0---0-|---2-----2---0-|---0-----0---0-|---0-----0---0-| |-----0-----0---|-----0-----0---|-----2-----0---|-----2-----2---| |---------------|---------------|---------------|-3-------------| |-3-------------|-2-------------|-0-------------|---------------| |/3-3-----------|/3-2-2-2-0-----|-0-------------|-0-----0-----0-----|--3------------|-----3-----------| |/3-3-0-0-0-1-3-|/5-3-3-3-1-3---|-1-3-0---------|-3-----3-----3-----|--3------------|-------3---------| |-----0-0-0-2-4-|-----------4---|---4-0---------|-0-----0-----0-----|--0------------|---------0-------| |---------------|---------------|---------------|-2-----0-----2-----|--0------------|-----------0-----| |---------------|---------------|---------------|-3-----2-----0-----|--2------------|-------------2---| |---------------|---------------|---------------|-------------------|--3------------|---------------3-|
Este fichero es trabajo propio de su transcriptor y representa su interpretación personal de la canción. El material contenido en esta página es
para exclusivo uso privado, por lo que se prohibe su reproducción o retransmisión, así como su uso para fines comerciales.

© LaCuerda.net · Aviso Legal · Privacidad