Acordes de Guitarra » R »Revolver » Por un beso (Tab)

Por un beso
Revolver

  • Letra y Acordes
    SOL
    Prefiero ser comida de lobos
                                 DO
    a quemar mi vida pidiendo perdón
                              SOL
    por ser idiota solo una noche
                    RE             DO
    y hacer un derroche de escaso valor
    
        SOL
    Los años me dicen que el verano
                                DO
    no es buen aliado para la razón
                               SOL
    y entonces manda sólo el instinto
                 RE                 DO
    y marca el camino del hombre que soy
       LAm                   RE
    y entonces le marca el camino
                  MIm   MI
    
  • Tablatura
    Intro
    
    e |----------------3-3-2-0----0-0-2-3-2---0-0-2---2-2-0---0-----0----|
    B |-0-0-1-3-3----3--------------------------------------3-----3---3--|
    G |------------------------------------------------------------------|
    D |------------------------------------------------------------------|
    A |------------------------------------------------------------------|
    E |------------------------------------------------------------------|
    
    
    e |------------------------------------------------------------------|
    B |---------5---3-5-3------------------------------------------------|
    G |-2-2-4-5--------------5-7-4---4-4-2-0---2-0-----------------------|
    D |--------------------------------------4---------------------------|
    A |------------------------------------------------------------------|
    E |------------------------------------------------------------------|
    
    
    
    Puente
    
    e |------------------3-3-2-0----0-0-2-3-2---2-2-0---2---2-2-0---0----|
    B |-0-0-0-1-3-3----3------------------------------3------
  • +
    ¡Colabora con nosotros!
    Envíanos tu versión de esta canción

Letra de Por un beso
Prefiero ser comida de lobos
a quemar mi vida pidiendo perdón
por ser idiota solo una noche
y hacer un derroche de escaso valor
Los años me dicen que el verano
no es buen aliado para la razón
y entonces manda sólo el instinto
y marca el camino del hombre que soy
y entonces le marca el camino
al hombre que soy
Por un beso no importa morir
si es tuyo mi amor
Por un beso no importa morir
si es tuyo mi amor
Solté las riendas de mis sentidos
y planté mi mano en su corazón
sentí cómo latía su pecho
y ardían los dedos del hombre que soy
sentí cómo ardían los dedos
del hombre que soy
Por un beso no importa morir
si es tuyo mi amor
Por un beso no importa morir
si es tuyo mi amor
Y el cielo estalló
abriendo el camino entre tú y yo
y volví a creer
que existe un dios
para los dos
para los dos
Y el cielo estalló
abriendo el camino entre tú y yo
y volví a creer
que existe un dios
para los dos
Dejamos atrás la avenida
y la luz del día nos llevó a mi hotel
juré frente al mar y la brisa
que no habría más vida
que la que tú me des
juré que no habría mas vida
que la que tú me des
Por un beso no importa morir
y volver a nacer
Por un beso no importa morir
y volver a nacer
Por un beso no importa morir
y volver a nacer.



© LaCuerda.net · aviso legal · privacidad · contacto