Tablatura para Guitarra de la Renga: Ruta 40
Conexión · Inscripción
Letras y Acordes
Pantalla Completa
Imprimir
Versión Texto
Añadir Favorito
Otras Versiones

Mostrar Diagramas
Desfile Automático
Manipular Acordes
Formato del Texto


Ruta 40(TAB)

la Renga

calidad:
reng0874
AUTOR: la Renga  corregir
ALBUM: desconocido
Enviado por Genaro
solo:

|--------------------------------------------------------------
|-14~~14-14~~14~~-15-14-(15)---------14h15p14h15p14h15p14------
|---------------------------16/--/16-----------------------16b-
|--------------------------------------------------------------
|--------------------------------------------------------------
|--------------------------------------------------------------

-----------------------------------------------------------
-----------------------10b~~-10b~~-10b~~-7h10p7------------
-16b-16p14-16p14--------------------------------9-9p7------
----------------17/-----------------------------------9----
-----------------------------------------------------------
-----------------------------------------------------------

------------------------------------------|
------------------------------------------|
-9b--7h9p7---7----------------------------|
-----------9---9--7h9p7-5h7p5-------------|
--------------------------------9-7-9-10--|
------------------------------------------|

referencias:
las de siempre:p
b:estirar
p:ligar(pull off)
h:ligar(hamer on)
/:deslizar o barrer
~~~:vibrar
(x):nota fantasma
Este fichero es trabajo propio de su transcriptor y representa su interpretación personal de la canción. El material contenido en esta página es
para exclusivo uso privado, por lo que se prohibe su reproducción o retransmisión, así como su uso para fines comerciales.

© LaCuerda.net · Aviso Legal · Privacidad