Tablatura para Bajo de la Renga: Ruta 40
Conexión · Inscripción
Letras y Acordes
Pantalla Completa
Imprimir
Versión Texto
Añadir Favorito
Otras Versiones

Mostrar Diagramas
Desfile Automático
Formato del Texto


Ruta 40(BAJ)

la Renga

calidad:
reng0873
AUTOR: la Renga  corregir
ALBUM: desconocido
Enviado por pato
INTRO

E------------/
A-2-0-2-0-2--/
D------------/
G------------/


verso


E-2--2--2--5--5--5--5-/
A---------------------/
D---------------------/
G---------------------/

E----------------------/
A-2---2-2---5---5-5--5-/
D----------------------/
G----------------------/

PEQUEÑOS ARREGLO

E-----------------/
A--2-2-2--5-5-5H7-/
D-----------------/
G-----------------/

E------------------/
A-2-2-2--5--5--5-2-/
D------------------/
G-------------7----/


ESTRIBILLO


E-0--0-0--2-3-5-------5-5-5---------/
A---------------3-5-5---------2-2-2-/
D-----------------------------------/
G-----------------------------------/


EL SOLO DEL TEMA HACE LA BASE
DEL VERSO PERO MAS RAPIDO Y DESPUES VA EL ESTRIBILLO


FINAL IGUAL QUE LA VIOLA

E-------------------------------------------------------------------/
A-7--5-7-9-7-7-|-2p0-0--5-4-2-|-7--9-10-12-10-10|-2p0-0-2/5-5-4-2-0-/
D-------------------------------------------------------------------/
G-------------------------------------------------------------------/
Este fichero es trabajo propio de su transcriptor y representa su interpretación personal de la canción. El material contenido en esta página es
para exclusivo uso privado, por lo que se prohibe su reproducción o retransmisión, así como su uso para fines comerciales.

© LaCuerda.net · Aviso Legal · Privacidad