Tablatura para Bajo de la Renga: Poder
Conexión · Inscripción
Letras y Acordes
Pantalla Completa
Imprimir
Versión Texto
Añadir Favorito
Otras Versiones

Mostrar Diagramas
Desfile Automático
Formato del Texto


la Renga
Poder(BAJ)
calidad:
reng0995
AUTOR: Gustavo F. Napoli "chizzo"
ALBUM: Algun rayo (2010)
Enviado por Emanuel
Versos:
Fíjense en los acordes de guitarra que colgaron aca.,
el bajo hace lo mismo casi.
Usa estas notas:
G------------------------------------------------------------
D------------------------------------------------------------
A------------------------------------------------------------
E-----0---2---3---------------------------------------------
Escuchen bien los tiempos  y lo van a sacar al toque.

Estribillos:
G------------------------------------------------------
D------------------------------------------------------
A-7---7------7---5-------------------------------------
E------------------------5---5-------5---5---5---5-----


G-------------------------
D------------------------
A-7—7-----5—5-----------
E--------------------5---

G--------------------------------------
D--------------------------------------
A-----0-----7-----0------7------0------
E--------------------------------------



1er solo:

G----------------------------------
D----------------------------------   X 4
A-----7---7----7-------------------
E----------------------------------

G------------------------------------------------------------------
D------------------------------------------------------------------
A-7---7---7--------5--6--7—--5--6--7-----5--6---7------5--6---7----
E------------------------------------------------------------------




Esta es la parte final del solo, parte en
que el bajo hace lo mismo que las violas,
pongo en partes porque no entra en una sola pero
 es todo de corrido y con velocidad:


G-----------------------------------------
D-----------------------------------------
A-----7—7--7--7—7-------------7—7—7—7-----
E-----------------------------------------



G----------------------------------------
D----------------------------------------
A------10—10---10---10-----12—12—12—12---
E----------------------------------------

G--------------------------------------
D--------------------------------------
A---9--9--9--9------12--12--12--12-----
E--------------------------------------

G---------------------12—12—12—12------
D----14—14—14—14-----------------------
A--------------------------------------
E--------------------------------------

G-----14—14---14—14-------16----
D-------------------------------
A-------------------------------
E-------------------------------
El solo del final q hace nacho smilari es con base del estribillo….

Y el final es:
G---------------
D----------------
A----------------
E---0---2---0—


Espero q les haya copado  el temita….
Creo q esta perfecto, por lo menos el solo
q es lo mas difícil capas les aseguro q
esta tal cual lo hace el tete…
Les dejo mi correo por cualquier consulta :
ema_la12_73@hotmail.com

Nos vemos y aguante la renga!!!
Este fichero es trabajo propio de su transcriptor y representa su interpretación personal de la canción. El material contenido en esta página es
para exclusivo uso privado, por lo que se prohibe su reproducción o retransmisión, así como su uso para fines comerciales.
© LaCuerda.net · Aviso Legal · Privacidad