Acordes de Guitarra » R »Reik » Niña (Tab)

Niña
Reik

  • Letra y Acordes
    e|--------------
    b|--------------
    g|--------------  Esto va antes de hacer el rasgueo del Lam ó Am
    D|--------------
    A|---2/3-2---0--
    E|---------3----
    
    
    e|--------------
    b|--------------
    g|--------------  Esto va antes de hacer el rasgueo del Fa ó F
    D|--------------
    A|---2/3-2------
    E|---------3-1--
    
    Am
    Desde aquel momento en el que te vi
    Am
    no he dejado de pensar en ti
    F
    
  • Letra y Acordes
    E|--------------
    B|--------------
    G|--------------  Esto va antes de hacer el raqueo del Lam ó Am
    D|--------------
    A|---2/3-2---0--
    E|---------3----
    
    
    E|--------------
    B|--------------
    G|--------------  Esto va antes de hacer el raqueo del Fa ó F
    D|--------------
    A|---2/3-2------
    E|---------3-1--
    
    LAm
    Desde aquel momento en el que te vi
    C
    no he dejado de pensar en ti
    F
    
  • Tablatura
    D|--------------
    A|-2h3h2-------0
    E|-------2h3----
    
    Riff 2
    D|--------------
    A|-2h3h2--------
    E|-------2h3---1
    
    Intro:
    
    Riff 1
    
    Am
    Desde aquel momento en que te vi  (Riff 1)
    Am
    No eh dejado de pensar en ti (Riff 2)
    F                                 G          C
    Y aunque solo fue una vez caí rendido a tus pies (Riff 1)
    Am
    
  • Tablatura
    Am - x 0 2 2 1 0
    Cadd5 - 0 3 2 0 3 3
    F - 1 3 3 2 1 1
    GX - 0 3 2 3 3 0 (no se como se llama este acorde asi que le puse GX =P)
    G - 3 5 5 4 3 3
    
    *-----------------------------*
    |b: Bend, subir una nota      |
    | empujando la cuerda hacia   |
    | arriba       |              |
    |V:Vibrato                    |
    |h: Hammer o  martilleo       |
    |/: Shift slide o resbalar    |
    |p: Pull off, soltar la cuerda|
    *-----------------------------*
    
    Intro
    6ta ------3--
    5ta-2h3h2--0-
    
    
  • Tab p/Bajo
    Bueno, aqui les tengo una cancion para esas "ninas" que sacan
    lo mejor de los Nosotros, ahi les va.
    
    Empieza al final de la 2a estrofa antes del coro asi:
    
    *RIFF 1
    
    G--------------------|
    D--------------------|
    A-------5-3^---------|
    E--1/3p--------------|
    
    
    Luego va el CORO:
    
    *CORO
    
    G---------------------------------------------------------------|
    D--3^--3-2-2----------------3^--3-2-2---------------------------|
    A------------5------3-----3-----------5------3-------3h5p3-0-3--| x 2
    E--------------3p/5---3-5---------------3p/5---3h5p3------------|
    
    
    Estrofa
    
    *RIFF 2
    
    G----------------------------------------------------------|
    D----------------------------------------------------------|
    A--0-0-0-0-0-0-0---0-0-0-0-0-0-3-2--------------------5-3^-| x 2
    E----------------3-----------------1-1-1-1-1-1-1-1/3p------|
    
    Luego va:
    
    *CORO x 2
    
    y en la parte que dice: "Y ya me quiero mirar" va:
    
    *RIFF 3
    
    G-----------------------------|
    D--------------2-3p/7---------|
    A-----------------------------|
  • +
    ¡Colabora con nosotros!
    Envíanos tu versión de esta canción
  • Tutorial
    HD
    Como tocar "NIÑA"-Reik (Acordes originales)
    10:49
  • Tutorial
    HD
    Como Tocar - Niña - REIK - Tutorial de Guitarra
    11:47

Letra de Niña
Desde aquel momento en el que te vi
no he dejado de pensar en ti
y aunque solo fue una ves
caí rendido a tus pies
y no se como acercarme a ti
preguntarte si quieres salir
y empezarte a conquistar
hasta llegarte a enamorar
niña en mi mente estas
y no te puedo olvidar
todo el tiempo pensando en ti
y no te pueda encontrar
niña donde andarás
si en mis sueños siempre estas
eres dueña de mi alma
eres toda mi felicidad
quiero descubrir como eres tu
y abrazarte bajo el cielo azul
con el tiempo tu sabrás
que esto no fue casualidad
sueño con tenerte junto a mi
ya veras que yo te haré feliz
para que yo te pueda amar
niña en mi mente estas
y no te puedo olvidar
todo el tiempo pensando en ti
y no te pueda encontrar
niña donde andarás
si en mis sueños siempre estas
eres dueña de mi alma
eres toda mi felicidad
(parece que esta estrofa no tiene guitarra)
y ya me quiero mirar
en esos ojos de mar
con los que tanto sueño
quiero descubrir como eres tu
y abrazarte bajo el cielo azul
con el tiempo tu sabrás
que esto no fue casualidad
sueño con tenerte junto a mi
ya veras que yo te haré feliz
para que yo te pueda amar
niña en mi mente estas
y no te puedo olvidar
todo el tiempo pensando en ti
y no te pueda encontrar
niña donde andarás
si en mis sueños siempre estas
eres dueña de mi alma
eres toda mi felicidad
espero que les guste la cancion, es fácil de aprender saludos
se despide
.: FiloKast :.



© LaCuerda.net · aviso legal · privacidad · contacto