Acordes de Guitarra » R »Reik » Ya me enteré (Tab)

Ya me enteré
Reik

  • Letra y Acordes
    Intro: A5 - Asus2/B - A/C# - Dadd2
           A5 - Asus2/B - A/C# - Dadd2
    
    Estrofa:
                 A
        Ya me enteré
                          E                 F#m
        Que hay alguien nuevo acariciando tu piel
                 D                         A
        Algún idiota al que quieres convencer
                 E           Dadd9
        Que tú y yo somos pasado
                   A
        Ya me enteré
                    E                        F#m
        Que soy el malo y todo el mundo te creé
                     D                      A
        Que estás mejor desde que ya no me ves
               E               D
        Más feliz con otro al lado
    
  • Letra y Acordes
    Intro:              G   C
    1 --3----5----7---------0---------
    2 ----3----3--------3---1---------
    3 --------------7---0---0--------
    4 --2----4----5-----0---2--------
    5 ----------------------3-------
    6 ------------------3------------
    
    Estrofa:
              G
    Ya me enteré
         D                                C
    Que hay alguien nuevo acariciando tu piel
                                      G
    Algún idiota al que quieres convencer
     D                    C
    Que tú y yo, somos pasado
             G
    Ya me enteré
               D                      C
    
  • Letra y Acordes
    A
    Ya me enteré
    
                    E                   D
    Que hay alguien nuevo acariciando tu piel
    E                                 D
    Algún idiota al que quieres convencer
              E          D
    Que tú y yo... Somos pasado.
    
    Ya me enteré
    Que soy el malo y todo el mundo te creé
    Que estás mejor desde que ya no me ves
    Más feliz con otro al lado.
    
    A        B           Bm
    ¿A quién piensas que vas a engañar?
                        A       E
    Sabes bien que eres mi otra mitad....
    
    
  • Tablatura
          A     Bsus2     C#m          E     D/Fm        arreglo de piano
    E  |--5-------7-------9------------0------2-----|-----------10--/--9---|
    B  |------5-------5----------------0------3-----|----10----------------|
    G  |----------------------9--------1------2-----|--11---11-------------|
    D  |--4-------6-------7-------------------0-----|------------9--/--7---|
    A  |--------------------------------------------|----------------------|
    E  |--------------------------------------2-----|----------------------|
    
          A     Bsus2     C#m          E     D/Fm
    E  |--5-------7-------9------------0------2--|
    B  |------5-------5----------------0------3--|
    G  |----------------------9--------1------2--|
    D  |--4-------6-------7-------------------0--|
    A  |-----------------------------------------|
    E  |--------------------------------------2--|
    
    VERSO
    
              Asus2
    Ya me enteré
    
  • Tablatura
    E|--------------|-------------|-----------|
    B|--------0-----|--2----------|-----------|
    G|--2-----------|-------------|-----2-----|
    D|-----2-----2--|-----2--2h4--|--4-----4--|
    A|--------------|-------------|-----------|
    E|--------------|-------------|-----------|
    
    E|--------|--------------|--------0--2--|
    B|--3--2--|--------0-----|--2-----------|
    G|--------|--2-----------|--------------|
    D|--------|-----2-----2--|-----2--------|
    A|--------|--------------|--------------|
    E|--------|--------------|--------------|
    
    Stave 2:
    E|--------------|--------------|-----------------------------|
    B|--2--0--------|--------2--2--|--0--0--0--0--0--0-----3--2--|
    G|--------2--2--|--2-----------|--------------------2--------|
    D|--------------|--------------|-----------------------------|
    A|--------------|--------------|-----------------------------|
    
  • +
    ¡Colabora con nosotros!
    Envíanos tu versión de esta canción
  • Tutorial
    HD
    Como tocar YA ME ENTERÉ de REIK en guitarra acustica
    5:59

Letra de Ya me enteré
Estrofa:
Ya me enteré
Que hay alguien nuevo acariciando tu piel
Algún idiota al que quieres convencer
Que tú y yo, somos pasado
Ya me enteré
Que soy el malo y todo el mundo te cree
Que estás mejor desde que ya no me ves
Más feliz con otro al lado
PreCoro:
¿A quién piensas que vas a engañar?
Sabes bien que eres mi otra mitad
Olvídate de ese perdedor
Y repítele que yo soy mejor
Que no le eres fiel Con el corazón
Que eres mía y sólo mía amor
Despídete de ese perdedor
Que imagina que ya no existo yo
Deja claro que aunque intente no
No vas a querer
La verdad es que me extrañas tanto
Lo sé
Ya me enteré
Estrofa:
Regresaras
Estoy seguro de que regresarás
Estás con él por pura comodidad
Aburrida entre sus brazos
Precoro:
¿A quién piensas que vas a engañar?
Sabes bien que eres mi otra mitad
Olvídate De ese perdedor
Y repítele Que yo soy mejor
Que no le eres fiel, con el corazón
Que eres mía y sólo mía amor
Despídete De ese perdedor
Que imagina que Ya no existo yo
Queda claro que Aunque intente no
No vas a querer
La verdad es que me extrañas tanto
Lo sé
Ya me entere
La verdad es que me extrañas tanto
Lo sé
Ya me enteré



© LaCuerda.net · aviso legal · privacidad · contacto