Acordes de Guitarra » R »Reik » Sabes (Tab)

Sabes
Reik

Letras, Acordes y Tabs para Guitarra, Bajo y Ukulele

  •  Dmaj7   G
    ---2-----3---
    ---2-----3---
    ---2-----4---
    ---0-----5--
    ---x-----5--
    ---x-----3--
    
    INTRO:
    
    e-----------------------0------------
    B-----2-------------------3-2---0----
    G-------4------2-0----2-----------2--
    D---4--------0------0---------2------
    A-2-------------------------0--------
    E----------3-------------------------
    
    e--------------------------------
    B-----2-----------------0--------
    G-------4------2-0--------0-2----
    
  • Am-F-C-G  Am F G
    [Verso 1]
    C        Cmaj7     F
    Sabes no pido nada mas
                        C
    Que estar entre tus brazos
      Cmaj7           F
    Y huir de todo el mal
                 Fmaj7 Dm-Dm7
    Que a todo he renunciado
          Gsus4         G
    Por estar junto a ti
    C        Cmaj7      F
    Sabes no dejo de pensar
                   C
    Que estoy enamorado
        Cmaj7       F
    Te quiero confesar
              Fmaj7   Dm   Dm7
    Que soy solo un esclavo
    
  •  D                  G                          D
    Sabes no pido nada mas, que estar entre tus brazos
                   G                  Em
    y huir de todo mal que a todo he renunciado
           D           A
    por estar junto a ti.
    
    
     D              G               D                    G
    Sabes no dejo de pensar, estoy enamorado te quiero confesar
                      Em                     D          A
    que soy solo un esclavo    que no sabe vivir...sin ti.
    
       Bm      G     D         A         Bm        G       D
    Cuando llegaste tu te metiste en mi ser, encendiste la luz
           A        Em               G
    me llenaste de fe, tanto tiempo busque pero al fin te
      Em                       D   A
    encontre tan perfecta como te imagine, oo noo oo
    
    
  • e|------------|------------|-----------|------------|
    B|------0-----|------------|------3----|------------|
    G|--------2---|------0-----|--------5--|-------2-0--|
    D|---2--------|---------3--|---5-------|----0-------|
    A|-0----------|----3-------|-3---------|------------|
    E|------------|-1----------|-----------|-3----------|
    
    e|------------|------------|---------------|
    B|------0-----|------------|---------------|
    G|--------2---|------0-----|-------4-----0-|
    D|---2--------|---------3--|----0----------|
    A|-0----------|----3-------|---------------|
    E|------------|-1----------|-3--------3----|
    
    En las estrofas el Fa es abierto y en el coro es con cejilla.
    
    C                   F                    C
    Sabes no pido nada mas, que estar entre tus brazos
                  F                Dm     Dm7
    y huir de todo mal que a todo he renunciado
    
  •      Cm   G#   D#   A#   Fm
    e----3----4----3----1----1----|  NOTA: Para hacerlo mas facil la cancion
    B----4----4----4----3----1----|     pueden ponerle un capo en el primer
    G----5----5----3----3----1----|     traste ojo que cambiaria la forma de
    D----5----6----5----3----3----|     pisar los acordes Ejemplo ya no tienen
    A----3----6----X----1----3----|     que hacer G# solo G en Cm Bm etc.
    E----X----4----X----X----1----|
    
    INTRO:
    
        Cm        G#         D#         A#
    e----------------------------------------------------|
    B-------4---------4----------4----------3------------|
    G---------5---------5------3---3----------3----------|
    D-----5---------6--------5----------3----------------|
    A---3---------------------------------1--------------|
    E-------------4--------------------------------------|
        Cm        G#         D#         A#
    e----------------------------------------------------|
    B-------4---------4----------4------3----------------|
    
  •       D                    G
         Sabes  no pido nada  más
                              D
         que estar entre tus brazos
                           G
         y huir de todo el mal
            Bm               Em    D
         que a todo he  renunciado
              A              A
         por estar junto a tí...
    
    
            D                G
         Sabes no dejo de pensar
                        D
         que estoy enamorado
                         G
         te quiero confesar
             Bm             Em   D
         que soy solo un esclavo
    
  •      Bm   G    D     A   Em
    e----2----3----2----0----0----|  NOTA: Lleva capo en el primer traste,
    B----3----0----3----2----0----|     aunque pueden tocarlo sin capo de
    G----4----0----2----2----0----|     todos modos suena bien.
    D----4----0----0----2----2----|
    A----2----2----X----0----2----|
    E----X----3----X----X----0----|
    
    INTRO:
    
          Bm           G          D           A
    e|------------|----------|------0---|------------|
    B|-------2----|----------|--------3-|-------0----|
    G|---------4--|-----3h0--|----2-----|---------2--|
    D|-----4------|---0------|--0-------|-----2------|
    A|---2--------|----------|----------|---0--------|
    E|------------|-3--------|----------|------------|
    
           Bm          G          D            A
    e|------------|----------|------0---|-----------0--|
    
  • Hola gente como están ? .
    Bueno de poco voy a ir poniendo más tab bass de reik ;)
    
    INTRO - Una nota por acorde.
    
    G|------|------|------|------|
    D|------|------|------|------|
    A|------|------|--5~--|------|
    E|--7~--|--3~--|------|--5~--|
    
    "Sabes, no dejo de pensar..."
    
    G|-----------|-----------|    G|-----------|-----------|
    D|-----------|-----------|    D|-----------|-----------|
    A|--5-5-555--|-----------| x2 A|--7-7-777--|-----------|
    E|-----------|--3-3-333--|    E|-----------|--5-5-555--|
    
    CORO - "Cuando llegaste tú..."
    
    G|--------|--------|--------|--------|
    D|--------|--------|--------|--------|
    A|--------|--------|--5555--|--------| x2
    E|--7777--|--3333--|--------|--5555--|
                                                                 CORO
    G|--------|--------|    G|--------|--------------------|      x2
    D|--------|--------|    D|--------|--------------------|
    A|--7777--|--------| x2 A|--5555--|--------------------|
    E|--------|--3333--|    E|--------|--5555555555555555--|
    
    
    
    
    IN
  • +
    ¡Colabora con nosotros!
    Envíanos tu versión de esta canción
  • Tutorial
    Sabes - Reik - Como tocar en guitarra
    6:59
  • Tutorial
    HD
    Como tocar Sabes de Reik en Guitarra (HD)
    Tutorial
    4:57
  • Tutorial
    Como Tocar "Sabes" de Reik Version Original Para Principiantes
    6:06

Letra de Sabes
Sabes no pido nada mas, que estar entre tus brazos
y huir de todo mal que a todo he renunciado
por estar junto a ti.
Sabes no dejo de pensar, estoy enamorado te quiero confesar
que soy solo un esclavo que no sabe vivir...sin ti.
Cuando llegaste tu te metiste en mi ser, encendiste la luz
me llenaste de fe, tanto tiempo busque pero al fin te
encontre tan perfecta como te imagine, oo noo oo
Como aguja en un pajar, te busque sin cesar
como huella en el mar, tan dificil de hayar
Tanto tiempo busque pero al fin te encontre,
tan perfecta aa aaa...como te imagine.
Sabes te quiero confesar que te encuentro irresistible
no dejo de pensar que haria lo imposible
por quedarme cerca de ti..
Cuando llegaste tu te metiste en mi ser, encendiste la luz
me llenaste de fe, tanto tiempo busque pero al fin te
encontre tan perfecta como te imagine, oo noo oo
Como aguja en un pajar, te busque sin cesar
como huella en el mar, tan dificil de hayar
Tanto tiempo busque pero al fin te encontre,
tan perfecta aa aaa...como te imagine.
Sabes no pido nada mas que estar entre tus brazoo oos.




[Sabes chords][Sabes cifra]
© LaCuerda.net · aviso legal · privacidad · es · en · pt · contacto