Acordes de Guitarra » R »Reik » Te fuiste de aquí (Tab)

Te fuiste de aquí
Reik

Letras, Acordes y Tabs para Guitarra, Bajo y Ukulele

  • C# B F#-C#
    A#m B F# F#m
    [Verso 1]
    C#            G#          A#m   A#m-G#
    Te fuiste de aquí, sin pensarlo.
    C#          G#            A#m   A#m-G#
    Dijiste que no me amabas más.
    C#         G#            A#m
    Yo te supliqué, quédate aquí.
          G#       Fm      F#
    Yo no sé que haría sin tí, no creo
         G#
    soportarlo.
    C#            G#              A#m    A#m-G#
    Te fuiste de aquí, todo ha acabado.
    C#         G#          A#m    A#m-G#
    Y llora mi alma en soledad.
    C#         G#           A#m
    La vida me puso junto a tí
          G#   Fm   F#
    
  •       D       C      G    D          Bm     C          G     Gm
    1|--0-2------0------x----x----|------2----------0------------x----
    2|-3----3------3-0--x----3----|----3---3------1---1----------x----
    3|-2--------------0-0----2----|--4---------0----------0------3----
    4|-0----------------0----0----|--4---------2----------0------5----
    5|-----------3------2---------|--2---------3----------2------5----
    6|------------------3---------|-----------------------3------3----
    
                            **Acordes en arpegio**
                 ***Se hace un hamer en Gº en la 3ra cuerda***
    
       D*  Amaj7   F#7     A6    A/F#G6   D/F#    Bm      Gmaj7    Asus4
    1|-5-----4------x-------2-----x-----x----x-----x-------x--------x--------0--
    2|-7-----5------2-------2-----2-----3----0-----3-------3--------3--------3--
    3|-7-----6------3-------2-----2-----2----0-----2-------4--------4--------2--
    4|-7-----7------4-------4-----2-----4----0-----0-------x--------0--------2--
    5|-5-----4------0-------0-----0-----x----2-----0-------2--------x--------0--
    6|----------------------------2-----3----3-----2----------------3-----------
    
    
    
  • e/------------------------------------/
    B/-------1----1-3-5-1-3-1-----1-1-----/
    G/--0--2---2---------------2--2-0-----/
    D/--------------------------3-3-2-----/
    A/------------------------------3-----/
    E/------------------------------------/
    
    C               G             Am-G
    Te fuiste de aquí, sin pensarlo.
    C            G             Am-G
    Dijiste que no me amabas más.
    C            G              Am
    Yo te supliqué, quédate aquí.
          Em                F C              G
    Yo no sé que haría sin tí, no creo soportarlo.
    C               G              Am-G
    Te fuiste de aquí, todo ha acabado.
    C          G            Am-G
    Y llora mi alma en soledad.
    C           G            Am
    
  •     C      A#      F   G    Am     A#     F  Fm
    e|----0--|-------|-1-|-3-|---0--|-------|-1-|-1-|
    B|-1-3-1-|-3-1---|-1-|-3-|--1-1-|--1-3--|-1-|-1-|
    G|-0-----|----2--|-2-|-0-|-2----|-3---2-|-2-|-1-|
    D|-2-----|-----3-|-3-|-0-|-2----|-3-----|-3-|-3-|
    A|-3-----|-1-----|-3-|-2-|-0----|-1-----|-3-|-3-|
    E|-------|-------|-1-|-3-|------|-------|-1-|-1-|
    
    
    C            G/B      Am     G/B
    Te fuiste de aquí, sin pensarlo.
    C          G/B          Am  G/B
    Dijiste que no me amabas más.
    C         G/B           Am
    Yo te supliqué, quédate aquí.
          Em               F             G4    G
    Yo no sé que haría sin tí, no creo soportarlo.
    
    C            G/B            Am    G/B
    Te fuiste de aquí, todo ha acabado.
    
  •       D      C      G    D          Bm     C          G     Gm
    1|--0-2------0------x----x----|------2----------0------------x----
    2|-3----3------3-0--x----3----|----3---3------1---1---0------x----
    3|-2--------------0-0----2----|--4---------0----------0------3----
    4|-0----------------0----0----|--4---------2----------0------5----
    5|-----------3------2---------|--2---------3----------2------5----
    6|------------------3---------|-----------------------3------3----
    
    
    1|------------------------------------------------------
    2|------------------------------------------------------
    3|------5---5-7--7/9--5-3-5--5/7--3--2-1----------------
    4|--5h7---7---------------------------------------------
    5|------------------------------------------------------
    6|------------------------------------------------------
    
    --Versos--
    Te fuiste de aquí sin pensarlo
    Dijiste que no me amabas más
    Yo te supliqué quédate aquí
    
  •       D      C      G    D          Bm     C          G     Gm
    1|--0-2------0------x----x----|------2----------0------------x----
    2|-3----3------3-0--x----3----|----3---3------1---1---0------x----
    3|-2--------------0-0----2----|--4---------0----------0------3----
    4|-0----------------0----0----|--4---------2----------0------5----
    5|-----------3------2---------|--2---------3----------2------5----
    6|------------------3---------|-----------------------3------3----
    
    Segunda Guitarra
    1|------------------------------------------------------
    2|------------------------------------------------------
    3|----------5-7--7/9--5-3-5--5/7--3--2-1----------------
    4|------------------------------------------------------
    5|------------------------------------------------------
    6|------------------------------------------------------
    
    --Versos--
    Te fuiste de aquí sin pensarlo
    Dijiste que no me amabas más
    1|--------------------------------------------------
    
  • +
    ¡Colabora con nosotros!
    Envíanos tu versión de esta canción
  • Tutorial
    HD
    Como tocar Te fuiste de aqui Reik en Guitarra (HD)
    Tutorial
    8:18
  • Tutorial
    HD
    Como tocar TE FUISTE DE AQUI en Guitarra
    2:49
  • Tutorial
    HD
    Como tocar Te Fuiste de Aqui Reik Intro Tutorial Guitarra (HD)
    4:10

Letra de Te fuiste de aquí
[Verso 1]
Te fuiste de aquí, sin pensarlo.
Dijiste que no me amabas más.
Yo te supliqué, quédate aquí.
Yo no sé que haría sin tí, no creo
soportarlo.
Te fuiste de aquí, todo ha acabado.
Y llora mi alma en soledad.
La vida me puso junto a tí
Nunca pude predecir.
Me convertiría en tu pasado.
Te fuiste de aquí, encontraste otra
vida.
Te fuiste de aquí, enterraste la mía.
Aunque no estés, yo sigo respirando
aquel amor.
Te fuiste de aquí, descubriste otros
brazos.
Borraste mis besos, me hiciste
pedazos.
Y duele ver que le entregaste a otro
el corazón.
Uh uh.
[Verso 2]
Te fuiste de aquí, todo en silencio.
Quedaron las huellas de nuestro
amor, noo.
Sueño que te abrazo una vez más.
Me despierto y ya no estás.
Me estoy ahogando en el vacío.
Te fuiste de aquí, encontraste otra
vida.
Te fuiste de aquí, enterraste la mía.
Aunque no estés, yo sigo respirando
aquel amor.
Te fuiste de aquí, descubriste otros
brazos.
Borraste mis besos, me hiciste
pedazos.
Y duele ver que le entregaste a otro
el corazón.
Y aún siento en el aire, me acaricia
tu voz.
Me robaste la luna, el cielo y las
estrellas... aaauh
Te fuiste de aquí, encontraste otra
vida.
Te fuiste de aquí, enterraste la mía.
Aunque no estés, yo sigo respirando
aquel amor.
Te fuiste de aquí, descubriste otros
brazos.
Borraste mis besos, me hiciste
pedazos.
Y duele ver que le entregaste a otro
el corazón.
Ohh ohh. Le entregaste, a otro el
corazón.




[Te fuiste de aquí chords][Te fuiste de aquí cifra]
© LaCuerda.net · aviso legal · privacidad · es · en · pt · contacto