Acordes de Guitarra » P »los Piojos » Genius (Tab)

Genius
los Piojos

Letras, Acordes y Tabs para Guitarra, Bajo y Ukulele

  • MI7
    No puedo invocar a mi genio
    Nena es tu amor un infierno
    Desde Holanda vino el bohemio
    Y te cruzó en San Telmo allá.
    
    SOL                LA                              MI
    Oh, cuantas veces arranqué por tu amor
    Oh, cuantas veces arranqué por tu amor.
    
    MI7
    No sé cómo zafa este lazo
    O si hay que cortarse en pedazos
    DO
    Un mercader compró tu vida
    MI7
    Y la vendió en los barrios bajos.
    
    SOL                LA              MI 7
    Oh, cuantas veces arranqué por tu amor
    
  •   E   Esus4 E4 
    e|-----------------|-------------------|--||
    b|-----------------|-------------------|--||
    g|-1-1-2-1--3--1-2-|-1-1-1-2-1--3--1-2-|--||
    d|-2-2-2-2--2--2-2-|-2-2-2-2-2--2--2-2-|x4||
    a|-2-2-2-2--2--2-2-|-2-2-2-2-2--2--2-2-|--||
    E|-----------------|-------------------|--||
    
    Entra la banda:
    
    Guitarra 1:
    e|------------------|--|
    b|--3p0-3p0-3-5-----|--|
    g|4-----------------|--|
    d|------------------|x8|
    a|------------------|--|
    E|------------------|--|
      Riff E
    e|-----------0------|--||
    b|-----------0------|--||
    
  • INTRO
    
    G|---------------------------|	Repite esto varias veces y lo sigue haciendo en
    D|---------------------------|	toda la primera parte de la estrofa.
    A|-------------7-----------7-|
    E|-0-0-4-0-5-7---0-4-0-5-7---|
    
    
    Viene haciendo esto una y otra vez, excepto en la última vuelta antes del
    'Oh!, cuantas veces arranqué por tu amor' que hace lo siguiente:
    
    G|---------------------------|
    D|---------------------------|
    A|-----------7---------------|
    E|-0-4-0-5-7---0-4-0-5-7-5-4-|  
    
    Y de aca sale al Oh! cuantas... que es asi:
    
    
    G|-----------------------------------------| x 2
    D|-----------------------------------------|
    A|---2-3-5-3-2-----4-5-7-5-4-------------7-|
    E|-3-----------3-5-----------0-0-4-0-5-7---|
    
    
    La segunda estrofa presenta una variación:
    
    G|-----------------| x 4
    D|-----------------|
    A|---------------7-|
    E|-0-|-0-4-0-5-7---|
    
    G|-------|
    D|-------|
    A|-3 x16-|
    E|-------| Y vuelve a la base de E
    
    
    ESTRIBILLO
    
    G|-----------------------
  • +
    ¡Colabora con nosotros!
    Envíanos tu versión de esta canción
  • Tutorial
    HD
    Explicado - Como tocar "Genius" de Los Piojos en el bajo tutorial#253
    13:53

Letra de Genius
No puedo invocar a mi genio
Nena es tu amor un infierno
Desde Holanda vino el bohemio
Y te cruzó en San Telmo allá.
Oh, cuantas veces arranqué por tu amor
Oh, cuantas veces arranqué por tu amor.
No sé cómo zafa este lazo
O si hay que cortarse en pedazos
Un mercader compró tu vida
Y la vendió en los barrios bajos.
Oh, cuantas veces arranqué por tu amor
Oh, cuantas veces arranqué por tu amor.
Estribillo
Entre todo el polvo y toda la humedad
Cúpulas de oro de la vieja Bagdad
Sesenta mil puertas delante de mí
Genio, se me cierran, tengo que elegir... Que elegir!
No puedo invocar a mi genio
Nena es tu amor un infierno
Pero yo te digo, mejor así
Un mundo sin vueltas se abrió para mí.
Oh, cuantas veces arranqué por tu amor
Oh, cuantas veces arranqué por tu amor.
Estribillo
Todo sobre: (Mi7 Do Mi7) x2
Voy, voy, como el mendigo del Docke
Voy, voy, como el mendigo del Docke
Voy, voy, como el mendigo del Docke
Voy, voy, como el mendigo del Docke
Voy, voy, como el mendigo del Docke
Voy, voy, como el mendigo del Docke
Voy, voy, como el mendigo del Docke
Voy, voy, como el mendigo del Docke.
Oh, oh, oh
Oh, oh, arranqué por tu amor.
AGUANTE LOS PIOJOS!!!!!!




[Genius chords][Genius cifra]
© LaCuerda.net · aviso legal · privacidad · es · en · pt · contacto
DINAMICO