Acordes de Guitarra » P »los Piojos » Ando Ganas (Tab)

Ando Ganas
los Piojos

Letras, Acordes y Tabs para Guitarra, Bajo y Ukulele

  • Intro: REm - Remsus4 - REm - REm9 - DO - DO9 - DO9
    
    
    1era. Guitarra:
    E--------------------------------------------------------------||
    A--------------------------------------------------------------||
    D--------------------------------------------------------------||
    G--------------------------------------------------------------||
    B---------------------------------------------5--8--8h10--8--5-||
    E--8--8--8--7--8--8--3--5---8--8--8--7--8--8-------------------||
    
    Dm7
    Ando ganas de encontrarte
    C
    cuánto lejos que estás acá
    Dm7
    ando ganas de encontrarte
    C
    ando lejos, más no me da
    Dm7 C
    
  • Intro: Dm - C
    
    Dm
    Ando ganas de encontrarte
    C
    cuánto lejos que estás acá
    Dm
    ando ganas de encontrarte
    C
    ando lejos, más no me da
    Dm
    llora, llora, llora mi pena de amor
    C
    llora, llora, llora mi pena por vos
    Dm
    llora, llora, llora mi pena de amor
        C
    y amale.
    
    F
    
  • E-------------------------------------------------------3------||
    A---------------------------------------------------------0----||
    D-----------------------------------------------2-3-2-0--------||
    G--------------------------------------------------------------||
    B---8-8-8-7-8-8-3-5-----8-8-8-7-8-8-1-5-5-5--------------------||
    E---8-8-8-7-8-8-3-5-----8-8-8-7-8-8-0-3-6-3--------------------||
    
    
    
    Dm7
    Ando ganas de encontrarte
    C
    cuánto lejos que estás acá
    Dm7
    ando ganas de encontrarte
    C
    ando lejos, más no me da
    Dm7
    llora, llora, llora mi pena de amor
    C
    
  • REm    remsus4rem    REm9   DO     DO9    DO     DO9                DO#7
    |---1------3------1------0------0------0------0------0--------------|-
    |---3------3------3------3------1------3------1------3----|---2--|----
    |---2------2------2------2------0------0------0------0---------|---4--
    |---0------0------0------0------2------2-----2-----2-----2h3p2p0--|-3-
    |-------------------------------3------3------3------3--------|---4--|
    |-------------------------------------------------------------------|-
    
    
    second guitar
    segunda guitarra - intro -
    -8--8--8--8--8--8--3--5--|--8--8--8--8--8--8-----------|--------------
    -------------------------|--------------------8--8--5--|--------------
    -------------------------|-----------------------------|--------------
    -------------------------|-----------------------------|--------------
    -------------------------|-----------------------------|--------------
    -------------------------|-----------------------------|--------------
    
    second guitar - second strophe -
    segunda guitarra - 2da estrofa -
    
  •  Introduccion
        D         D        C       C
    |--------|--------|--------|--------|
    |--7---7-|--7---7-|--5---5-|--5---5-|
    |5---5---|5---5---|3---3---|3---3---|
    |--------|--------|--------|--------|
    
    
     Ando ganas....
        D         D        C       C
    |--------|--------|--------|--------|
    |--7---7-|--7---7-|--5---5-|--5---5-|
    |5---55--|5---55-5|3---3---|3---33--|
    |--------|--------|--------|--------|
    
        D         D        C       C
    |--------|--------|--------|--------|
    |--7---7-|--7-----|--5---5-|--5---5-|
    |5---55--|5--55555|3---3---|3---33--|
    |--------|--------|--------|--------|
    
     Llora....
        D         D        C       C
    |--------|--------|--------|--------|
    |--7---7-|--7---7-|--5---5-|--5-----|
    |5---5---|5---55--|3---3---|3---3333|
    |--------|--------|--------|--------|
    
        D         D        C       C
    |--------|--------|--------|--------|
    |--7---7-|--7---7-|--5---5-|--5-----|
    |5---5---|5---5--5|3---3---|3---3333|
    |--------|--------|--------|--------|
    
    
     Estribillo
     A mi si que...
  • +
    ¡Colabora con nosotros!
    Envíanos tu versión de esta canción
  • Tutorial
    HD
    Explicado - Como tocar "Ando ganas (llorá llorá)
    " de Los Piojos en el bajo tutorial#248
    11:38

Letra de Ando Ganas
1era. Guitarra:
Ando ganas de encontrarte
cuánto lejos que estás acá
ando ganas de encontrarte
ando lejos, más no me da
llora, llora, llora mi pena de amor
llora, llora, llora mi pena por vos
llora, llora, llora mi pena de amor
y amale.
A mí sí que me gustan tus piernas mecerse
como si fueran olas
por lo que se ve
me gustó tu mar y tu
canoa
Ando ganas de encontrarte
de una buena vez por todas
el invierno largo se fue
y ya cambiaron las modas
llora, llora, llora mi pena de amor...
A mí sí que me gustan tus piernas mecerse
como si fueran olas
por lo que se ve
me gustó tu mar y tu
canoa
Sólo una cosa te digo
yo necesito un abrigo
que en esta tierra hace frío
si no estás al lado mío
y como vos no hay ninguna
no brilla tanto la luna
ando ganas de encontrarte
quiero llevarte pa' marte.
\X____O/
4OOOOOO
||||||
||OOO|
||||||




[Ando Ganas chords][Ando Ganas cifra]
© LaCuerda.net · aviso legal · privacidad · es · en · pt · contacto