Acordes de Guitarra » P »los Piojos » Civilización (Tab)

Civilización
los Piojos

Letras, Notas, Punteos, Tablaturas y Acordes de Guitarra (Tabs & Chords)

  • Letra y Acordes
    INTRO: Am - Dm - C - G (siempre punteados)
    
    Am
    Hay algo que está sonando
     Dm
    seguro que ya lo oías
    C
    la tierra está vibrando
    G
    con distinta melodía.
    
    Am
    Ni dioses locos de furia
     Dm
    ni demonios vengativos
    C
    ni naves extraterrestres
    G
    ni algún cometa perdido.
    
    
  • Tablatura
          Am              Dm              C                 G
    e|--5------5----|-5------5----|8---------8-----|7---------8--7----|--|
    B|----5--5---5-5|---6--6---6-6|----8----8---8-8|---8---8----------|--|
    G|------5-----5-|-----7-----7-|--------9-----9-|------7-----------|--|
    D|--7--7---7----|-7--7---7----|10---10---10----|9---9-----7--7----|x2|
    A|--------------|-------------|----------------|------------------|--|
    E|--------------|-------------|----------------|------------------|--|
    Teclado:
    e|--------------|-------------|----------------|------------------|--|
    b|-10--13---10--|-10---13--12-|---8---12----8--|8-10-5h8-0h5-0h3-0|--|
    g|--------------|-------------|----------------|------------------|x2|
    d|--------------|-------------|----------------|------------------|--|
    a|--------------|-------------|----------------|------------------|--|
    E|--------------|-------------|----------------|------------------|--|
    
    (Entran en segunda vuelta)
    Guitarra 1:
          Am              Dm              C                 G
    e|--5--5--5--5--|--5--5--5--5-|---3--3--3--3---|---3--3---3--3----|--|
    b|--5--5--5--5--|--6--6--6--6-|---5--5--5--5---|---3--3---3--3----|--|
    
  • Tab p/Bajo
    El bajo entra en el segundo verso de la cancion.
    
    
     verso 1:
    G|-------------------------------------------------------
    D|-------------------------------------------------------
    A|------7-----------5---5--5--4--3--5--7--3-------5------
    E|--5-----5--5---7----5---------------------5--3-----3---
    
    
    
    
     verso 2:
    G|-------------------------------------------------------
    D|----------------------------------5--------------------
    A|------7-----------5---5--5--4--3-----3--3--------5-----
    E|--5-----5--5---7----5----------------------5--3-----3--
    
    
    
    
    
    
     verso 3:('no te olvides del mamut...')
    G|-------------------------------------------------------
    D|-------------------------------------------------------
    A|------------5--5-5---3--3-3----------------------------
    E|----5--5-5-------------------3--3-3--------------------
    
    
    
    
    los versos 1 y 2 se intercalan durante toda la cancion.
    
    
    note que en esta cancion nadie había puesto el bajo.
    bueno acá esta, espero difruten tocando.
  • Armónica
    Este tema lo toca con armonica en Do(C)
    
    (4) 4 (4) 5 4 3
    (4) 4 (4) 5 4
    (4) 4 (4) 5 4 3
    (4) 4 (4) 5(3)
    
    (4) 4 (4) 5 4 3
    (4) 4 (4) 5 4
    (4) 4 (4) 5 4 3
    (4) 4 (4) 5(3)
    
    Es facil, espero que les sirva. Aguante La Bigornia.
    Se lo dedico a mi hijo Mirko. Tito1977
  • +
    ¡Colabora con nosotros!
    Envíanos tu versión de esta canción

Letra de Civilización
Hay algo que está sonando
seguro que ya lo oías
la tierra está vibrando
con distinta melodía.
Ni dioses locos de furia
ni demonios vengativos
ni naves extraterrestres
ni algún cometa perdido.
La historia es mucho más clara
y tiene también sentido
la tierra se está quitando
de encima al peor enemigo.
Vienen los cuatros jinetes
cabalgando vienen digo
agua, tierra, fuego y aire
vienen de tu propio ombligo.
Oh oh oh oh,
cosas de la civilización.
Que todo ya está montado
que millones de despidos
el camino es complicado
quizá como nunca ha sido.
Anoche soñé con Manu
y esta melodía cantaba
alguien encendía un asado
alguien de lejos llegaba.
Y si viene un río gris
que separe al mundo en dos
quisiera quedar del mismo lado
nena que vos (bis).
Un nuevo desierto,
un nuevo granizo,
saben quien lo hizo
anda por acá.
Dios perdona,
el hombre a veces,
la naturaleza nunca
anda por acá.
No te olvides del mamut,
que no termino el vermouth.
no te olvides del mamut,
que no termino el vermouth C
por alla
suena mejor si hacen todos los acordes con cuerda pisada,
y en la mayor parte da la cancion C es en traste 8 y G en el 10
y en los estribillos hace esto:
ojala que les guste y les sirva!



© LaCuerda.net · Aviso Legal · Privacidad