Acordes de Guitarra » P »los Piojos » Tan solo (Tab)

Tan solo
los Piojos

  • Letra y Acordes
        SOL
     Quizás no sea el vino
        FA
     quizás no sea el postre
     DO                      SOL
     quizás no sea, no sea nada.
          SOL
     Pero hay tanta belleza
       FA
     tirada en la mesa
        DO               SOL
     desnuda toda rebalsada.
     Apurás el vaso
     vas perdiendo el paso
     y en la mesa ya no hay nada.
     Borracha está la puera
     cerraste y quedó abierta
     y pued escuchar tu llamada.
    
     SOL   FA       DO     SOL
    
  • Letra y Acordes
    -----------------------------------------------------
    -----------------------------------------------------
    -----------------------------------------------------
    -------------------5-------------------------------4-
    -5--5-0-0-5-4-3--3---3----------2-2-3-4-5--5-0-0-5---
    ----------------------5-4-3--3-----------------------
    
    
     G
    Quizá no sea el vino
        F
    Quizá no sea el postre
        C
    Quizá no sea
            G
    No sea nada.
    
          G
    Pero hay tanta belleza
       F
    
  • Tablatura
    1|-------------------|---------------|----------------|
    2|-------------------|---------------|----------------|
    3|-------------------|----5----------|----------------|
    4|--4/5x--5---5-4-3x-|--3---3--------|----2-2--3-4-5x-|
    5|---------5-5-------|--------5-4-3x-|--3-------------|
    6|-------------------|---------------|----------------|
    
    Riff 2:
    1|-----------------|
    2|-----------------|
    3|-----------------|
    4|--5-----3/4-6-5x-|
    5|----5-5----------|
    6|-----------------|
    
    Riff 3:
    1|---------------|---------------|----------------|
    2|---------------|---------------|----------------|
    3|---------------|----5----------|----------------|
    4|--5-----5-4-3x-|--3---3--------|----2-2--3-4-5x-|
    
  • Tab p/Bajo
    Esta es la versión de estudio, en vivo el loco hace
     Un par de cosas más. Acá les va:
    
    (Se repite en todo el tema)
     |---------------------|---------------|-------------|
     | --------------------|---10----------|-------------|
     | --10-10-------10-9-8|-8----8--------|---7-7-8-9-10|
     | --------10-10-------|--------10-9-8-|-8-----------|
    
    
     |---------------------|---------------|-------------||
     |---------------------|---------------|-------------||
     |---------------------|---------------|-10-------8-9||
     |---------------------|---------------|----10-10----||
    
    Esta parte es cuando canta: “Salta la cuerda se enrieda y
    Cae de boca”
    
    |-----------------------------------------------------||
    | ----------------------------------------------------||
    | -10-10-10-10-8-8-8-8----------10-10-10-10-----------||
    |---------------------10-10-10-10---------------------||
  • Tab p/Bajo
    Base:
    
    G|---------------5-------------------------------4------|
    D|-5-5-----5-4-3---3---------2-2-3-4-5-5-0-0-4h5--------|
    A|-----5-5-----------5-4-3-3----------------------------|
    E|------------------------------------------------------|
    
    
    Estribillo (La parte de: 'Salta la cuerda...'
    
    G|---------------------------555-5----------------------|
    D|----555-5-------333-3-----5---5-------555-5-----------|
    A|---5---5-------3---3----33-----------5---5------------|
    E|-33----------11--------------------33-----------------|
    
    Eso es todo, si tienen alguna duda manden un mail.
    Chau
  • Batería
    intro:
    empieza junto con la armónica y después la primera estrofa
    
      1   2   3   4
    
    h:----x-------x--- ) 
    r:---------------- ) 24 veces
    b:---------------- )
    
    después el estribillo
    
      1   2   3   4
      
    c:x--------------- )
    h:----x-------x--- ) 7 veces   
    r:---------------- )
    b:o--------------- )
    
    arranca la base
    
      1   2   3   4                           1   2   3   4 
    
    c:---------------- )                   h :x-x-x-x-x-x-----  
    h:x-x-x-x-x-x-x-x- ) 7 veces y el fill t1:-------------ooo
    r:---------------- )                   r :----o-------o---
    b:o-------o-o----- )                   b :o-------o-o-----
    
    repite base 7 veces de nuevo y el fill es:
    
      1   2   3   4
    h:x-x-x-x-------x-       después 6 veces mas la base con el
    r:----o---ooooo---       estribillo
    b:o---------------
    
    y la parte de “salta la cuerda” es:
      1   2   3   4
    h:xxxxxxxxxxxxxxxx (semicorcheas) y termina con doble golpe  
    r:----o-------o---                de redoblante
    b:o-----
  • Armónica
    ARMONICA EN DO(C)
    
    
    
    3 (4)b (4)b (5) x2
    
    3 (4)b (4)b (5) 3 4 (3)b 3
    
    3 (4)b (4)b (5) x2
    
    3 (4)b (4)b (5) 3 4 (4)b
    
    
    
    3:22
    
    3 (4)b (4)b (5)
    
    (3)-(4)b
    
    3 (4) (5) 6 (5)b (4)b (5)
    
    3 (4)b (5)
    
    3 4 (3) (4)b 3
    
    
    subo esta partitura xq me parecio que en todas las que vi
    se equivocaban al principio  y no sonaba bien.. (me refiero al
     3 4 (3)b 3 que esta en el segundo renglon )
    espero que les guste.
    
    santi
  • Armónica
    ARMONICA EN DO(C)
    
    
    
    (2)=>(4)b (4)b (5)
    
    (2)=>(4)b (4)b (5)
    
    (2)=>(4)b (4)b (5) 3 4 (3)b 3
    
    (2)=>(4)b (4)b (5)
    
    (2)=>(4)b (4)b (5)
    
    (2)=>(4)b (4)b (5) 3 4 (4)b
    
    
    
       3:18
    
    (2)=>(4)b (4)b (5)
    
    (2)=>(4)b
    
    (2)=>(4) (5) 6 (5)b (4)b (5)
    
    (2)=>(4)b (5)
    
    3 4 (3) (4)b 3
    
    
    ACLARACIÓN:
    Numero entre parentesis es aspirado EJ : (2)
    Numero solo es soplado EJ : 2
    en la primer parte donde hay una "b" significa bending,
    el bending es un efecto que se produce
    cerrando y abriendo la garganta y pronunciando "ue".
    En este caso en cada bending se pronuncia "ueue".
    
    Corrigo esta partitura..
    la parte que esta mal es la primera, el error que vi
    esta en la primer parte.
    vi que lo pusieron como un "3"soplado y en realidad,
    es un "(2)"asìrado
    Espero que les sirva...
    Nico Proca.
  • Armónica
    TAN SOLO
    los piojos_armonica en do(c)
    esta es la verdadera version de tan solo del ritual
    en vivo en 1999
    
    3(4)b(4)(4)b(4)(5)
    3(4)b(4)(4)b(4)(5)
    3(4)b(4)(4)b(4)(5)
    3(4)b 4 3
    se repite dos veces al principio
    y luego de salta la cuerda....va:
    
    3(4)b(4)(4)b(4)dejamos un tiempo y luego(5)
    3(4)b(4)(4)b(4)dejamos un tiempo y luego 4
    y despues de esto se manda una zapada de blues
    
    bueno esto es todo
    cualquier duda consultar al mail: la87eze@hotmail.com
    aguante mauri carrizo y ezequiel jaime de la87 gllen
    mendoza
    
    chau
  • +
    ¡Colabora con nosotros!
    Envíanos tu versión de esta canción
  • Tutorial
    Como tocar Tan solo de los Piojos!! TUTORIAL
    5:05
  • Tutorial
    Como tocar tan solo de los piojos
    6:27
  • Tutorial
    HD
    Explicado - Como tocar "Tan solo" de Los Piojos en el bajo tutorial#249
    10:03

Letra de Tan solo
Quizás no sea el vino
quizás no sea el postre
quizás no sea, no sea nada.
Pero hay tanta belleza
tirada en la mesa
desnuda toda rebalsada.
Apurás el vaso
vas perdiendo el paso
y en la mesa ya no hay nada.
Borracha está la puera
cerraste y quedó abierta
y pued escuchar tu llamada.
OOOH OOOH TAN SOLO >> ESTRIBILLO <<
(repite 4 veces)
Servida ya tu boca
tan dulce está tu boca
tan dulce como un blues amargo.
Un vaso rueda al piso
lento cae al piso
lento y muere en mil pedazos.
No quiero dejar que se vean
tus ojos se vean
tan, tan, tan, tan tristes.
Habrá sido el destino
ese vaso de vino...
que dijiste...
OOOH OOOH TAN SOLO >>estribillo <<
Salta la cuerda
se enrieda y cae de boca.
OOOH OOOH TAN SOLO >> estribillo



© LaCuerda.net · aviso legal · privacidad · contacto