Tablatura para Bajo de los Piojos: El Viejo
Conexión · Inscripción
Letras y Acordes
Pantalla Completa
Imprimir
Versión Texto
Añadir Favorito
Otras Versiones

Mostrar Diagramas
Desfile Automático
Formato del Texto


El Viejo(BAJ)

los Piojos

calidad:
pioj1081
AUTOR: Ciro con Pappo
ALBUM: Los Piojos
Enviado por Rodrigo
INTRO Y VEROS
G--------------
D---------------
A---5-4-2-------
E-0-------3-4-0-0

G--------------
D--------------
A--------------
E-33-44-5555555  yo soy un hombre bueno...

G----------------------------
D--------------5-6-7-8-------- la otra parte del
A----------5-7---------555-777 estribo
E-33-------------------------

SOLO:
G---------------------
D-----------------------
A-----------------------
E-3333-5555-333333-77777
Y TERMINA ASI
G-----------------
D-----------------
A----5-----5------
E-33---333---3-4-5

          ESTE TEMA ES PARA GASTON BLANCO
Este fichero es trabajo propio de su transcriptor y representa su interpretación personal de la canción. El material contenido en esta página es
para exclusivo uso privado, por lo que se prohibe su reproducción o retransmisión, así como su uso para fines comerciales.

© LaCuerda.net · Aviso Legal · Privacidad