Acordes de Guitarra » P »los Piojos » Dientes de cordero (Tab)

Dientes de cordero
los Piojos

  • Letra y Acordes
    Intro con Cm - G# - G -F    X2
    
     
       Am                      F
    Dientes de cordero, sobre la ciudad
       G                    Am
    Árboles de fuego, para navidad...
                Am                   F
    Ollas que destellan, en la noche azul
               G                     Am
    Abollada estrella, vieja cruz del sur...
       F#m                          D
    Los lobos ahora se excitan, tiemblan frente a la TV
        E                                 F#m                           
    Aunque el plan sale deprisa, el plan va saliendo bien
       Am                   F
    Dientes de cordero, cruzan la ciudad
         G                   Am        
    Gritan su deseo, de justicia y libertad...
    
    
  • Tablatura
           Cm              G#                G               F
    e|---------------|---------------|---------------|---------------|--||
    b|---3h4---------|---3h4---------|-------3~~~~~~-|----2~~1~~~~~~-|--||
    g|-------5~------|-------5~------|---4h5---------|---------------|--||
    d|---------------|---------------|---------------|---------------|x2||
    a|---------------|---------------|---------------|---------------|--||
    E|---------------|---------------|---------------|---------------|--||
    Guitarra 2:
           Cm              G#                G               F
    e|3--------------|4--------------|3--------------|1--------------|--||
    b|4--------------|4--------------|3--------------|1--------------|--||
    g|5--------------|5--------------|4--------------|2--------------|x2||
    d|5---------0h1-0|6---------0h1-0|5--------------|3--------------|--||
    a|3--------------|6--------------|5--------------|3--------------|--||
    E|---------------|4--------------|3---------0-3-0|1--------------|--||
    Bajo:
    (Tónicas)
    
    
    Estrofa 1:
    
  • Tab p/Bajo
    intro
    
    G|--------------------------|
    D|--------------------------|
    A|333333--------------------|
    E|-------444444-333333-11111|    (X2)
    
    Riff 1
    
    G|--------------------------|
    D|--------------------------|    (X2)
    A|--------------------------|
    E|555555-111111-333333-55555|
    
    Riff 2
    
    G|--------------------------|
    D|--------------------------|
    A|------555555--------------|
    E|22222--------000000-222222|
    
    Riff 1
    
    INTRO
    
    Riff 1
    
    Riff 2
    
    
    Riff 3
    g|--------------------------|
    D|--------------------------|
    A|333333-111111-------------|
    E|--------------111111-55555|
    
    G|--------------------------|
    D|--------------------------|
    A|33333---------------------|
    E|------33333-11111-555555--|
    
    intro
    
    riff 1
    
    riff 2
    
    riff 1
    
    riff 3 y se va con el riff 3
  • +
    ¡Colabora con nosotros!
    Envíanos tu versión de esta canción





© LaCuerda.net · aviso legal · privacidad · contacto