Acordes de Guitarra » P »los Piojos » Como Alí (Tab)

Como Alí
los Piojos

Letras, Acordes y Tabs para Guitarra, Bajo y Ukulele

  • Gm - Gm - F - Gm(x2
    (haganlo como si fuera ska)
    
    riff:
    e-------------------------1-0---------
    B-------3--------3------------1-3-----
    G-0-2-3----0-2-3----0-2-3-------------
    D-------------------------------------
    A-------------------------------------
    E-------------------------------------
    
    estrofa:
    Gm
    Es la nueva sensación, la nueva generación,
    F            Gm
    Es un salto, es un frenesí
    Gm
    Rebotando por doquier, de la villa hasta Blaquier
    F                          Gm
    Soy Jacobo Flash, el saltarin
    
  •       Gm                           F
    --------------------------------------------------
    -----------------------------------6--5-----------
    -----------7-----------7-----------------5--7-----    x2
    --5--7--8-----5--7--8-----5--7--8-----------------
    --------------------------------------------------
    --------------------------------------------------
    
    Gm
    Es la nueva sensación, la nueva generación,
    F                        Gm
    es un salto, es un frenesí
    Gm
    Rebotando por doquier, de la villa hasta Blaquier
    F                         Gm
    soy Jacobo Flash, el saltarín
    
    Riffx2
    
    Gm
    
  • E-----------------------   
    B------3-----3-----6-5-3
    G---3h5---3h5---3h5---5-   x 2
    D--5-----5-----5--------
    A-----------------------
    E-----------------------
    
    
    Gm/A#
    Es la nueva sensación, la nueva generación,
    
    F/A                      Gm/A#
    Es un salto, es un frenesí
    
    Gm/A#
    Rebotando por doquier, de la villa hasta Blaquier
    
      F/A                      Gm/A#
    Soy Jacobo Flash, el saltarin.
    
    
  •          Gm              F
    -------------------------1-0----------------------
    ---------3-------3-----------1-3------------------
    ---0-2-3---0-2-3---0-2-3--------------------------    x2
    --------------------------------------------------
    --------------------------------------------------
    --------------------------------------------------
    
    Gm
    Es la nueva sensación, la nueva generación,
    F                        Gm
    es un salto, es un frenesí
    Gm
    Rebotando por doquier, de la villa hasta Blaquier
    F                         Gm
    soy Jacobo Flash, el saltarín
    
    Intro
    
    Gm
    
  • Esta muy bien sacado che!!!
    
    Intro y verso x 10
    |----------------|----------------|----------------|--3-------------|
    |----------------|5---------------|----------------|5---5-----------|
    |------------5---|----5-----------|----0---3---0---|--------5-------|
    |3---5---6-------|--------6-5-3---|1-------------1-|----------6-3---|
    
    Estribillo x 1
    |--------5-------|----------------|--------5-------|----------------|
    |----2------2-3--|5-------5-------|----2-------2-3-|5-------5-----5-|
    |3---------------|----5-------5-4-|3---------------|----5-------5---|
    |----------------|----------------|----------------|----------------|
    
    |----------------|----------------|----------------|----------------|
    |3---3---3---3---|2---2---2---2---|1---1---1---1---|0---0---0---0---|
    |----------------|----------------|----------------|----------------|
    |----------------|----------------|----------------|----------------|
    
    Verso x 4
    |----------------|----------------|----------------|--3---------
  •       _____________________________________
         /
    +---+---------------------------------------+---+
    |   | 1 | 2 | 3 | 4 | 5 | 6 | 7 | 8 | 9 | 10| C |
    +---+---------------------------------------+---+
         _____________________________________/
    
    Intro:
    (4) 5 (5)(6)   (4) 5 (5)(6)   (4) 5 (5) 7 (7) 6 (6)
    (4) 5 (5)(6)   (4) 5 (5)(6)   (4) 5 (5) 7 (7) 6 (6)
    
    
    Es la nueva sensacion la nueva generacion
     7  7  7  7 (7) 7 (8)    7  7  7  7 (7) 7 (8)
    es un salto es un frenesi
     7  7 (7)(7)   (7)(7)(6)(7) 7
    rebotando por doquier de la villa hasta Blaquier
     7  7  7  7 (7) 7 (8)    7  7  7  7 (7) 7 (8)
    soy Jacobo Flash el saltarin
     7  7 (7)(7)   (7)(7)(6)(7) 7
    
    
    solo:
    (4) 5 (5)(6)   (4) 5 (5)(6)   (4) 5 (5) 7 (7) 6 (6)
    (4) 5 (5)(6)   (4) 5 (5)(6)   (4) 5 (5) 7 (7) 6 (6)
    
    
    Hay un bombo criminal un relampago virtual
     7  7  7  7 (7) 7 (8)    7  7  7  7 (7) 7 (8)
    hay enanos corriendo por ahi
     7  7 (7)(7)   (7)(7)(7)(6)(7) 7
    hay mujeres que no son dealer pifa su pocion
     7  7  7  7 (7) 7 (8)    7  7  7 
  • Hola atame,es la primera vez que hago esto, espero que este bien y que le guste.
    º escala siguiente
    * sostenido
    6 se repite 6 veces
    ... se repiten las notas
    
    INTRODUCCIÒN
        (re-mi-fa-la)(re-mi-fa-la)(re-mi-fa-doº-si-sol-la)
         (sol6-la)             (sol6-la)
    Es la nueva sensación, la nueva generación,
      (sol2-fa4-re-mi-fa)
    Es un salto, es un frenesí.
         (sol6-si)              (sol6-si)
    Rebotando por doquier, de la villa hasta Blaquier
        (sol2-fa5-re-mi-fa)
    Soy Jacobo Flash, el saltarín.
    
    Hay un bombo criminal, un relámpago virtual,
    Hay enanos corriendo por ahí.
    Hay mujeres que no son, dealer pifia su poción,
    Y yo recien llegado de chajarí
    
    re2-la-sol-fa-re     re2-la-sol-fa-re
    Rebotín rebotán, de la vera vera land
                   (mi11-fa6)
    De la pista a la cabina cuántos bichos tiene encima...
     (re2-la-sol-fa-mi-re)    (re2-la-sol-fa-mi-re)
    Tengo los dedos              supersensitivos
     (mi5-re-mi-fa)
    Tengo los ojos de Darín.
     (la-la*
  • +
    ¡Colabora con nosotros!
    Envíanos tu versión de esta canción
  • Tutorial
    HD
    Explicado - Como tocar "Como Alí" de Los Piojos en el bajo tutorial#94
    10:12

Letra de Como Alí
(haganlo como si fuera ska)
riff:
estrofa:
Es la nueva sensación, la nueva generación,
Es un salto, es un frenesí
Rebotando por doquier, de la villa hasta Blaquier
Soy Jacobo Flash, el saltarin
Hay un bombo criminal, un relámpago virtual,
Hay enanos corriendo por ahí.
Hay mujeres que no son, dealer pifia su poción,
Y yo recién llegado, de Chajarí.
Rebotín rebotán, de la vera vera land
De la pista a la cabina cuantos bichos tiene encima…
Tengo los dedos supersensitivos
Tengo los ojos de Darín.
ESTRIBILLO
Y en esta danza soy rey sin corona,
Y en esta danza que no tiene fin,
Yo voy saltando sin par, voy a quedar
Voy a quedar como Alí.
estrofa:
Que esta mina me busco, que esta mina me encontró,
Que esta mina no me quiere dejar,
Yo no entiendo que hay en mi, yo no se que pasa aquí,
Solamente déjenme mirar.
Y yo casi soy doctora, y no duermo ni una hora
A veces veo al bisabuelo con Borrego, en la cocina,
Y yo soy Clop, el nuevo chico top,
Arranco el miércoles saliendo de la oficina.
Y todo el mundo saltando contento,
Porque allá afuera te espera el país,
Y yo me llevo al compás, d.j. sin paz
Y desde acá veo Berlín.
ESTRIBILLO
Y todo el mundo saltando contento,
Porque allá afuera te espera el país,
Y yo me llevo al compás, d.j. sin paz
Y desde acá veo Berlín.
Y en esta danza soy rey sin corona,
Y en esta danza te bailo en un ring…
Voy saltando sin par, voy a quedar
Voy a quedar como Alí
Emborrachar Mi corazón, Y rebotar Quiero yo.
asi termina
es mejor hacerlo en sejilla
suerte=)




[Como Alí chords][Como Alí cifra]
© LaCuerda.net · aviso legal · privacidad · es · en · pt · contacto