Acordes de Guitarra » P »los Piojos » El Farolito (Tab)

El Farolito
los Piojos

Letras, Acordes y Tabs para Guitarra, Bajo y Ukulele

  • Cm                  Ab                  Cm
    Uoh bamba uoh bamba uoh bamba uoh bamba uoh
    
    Cm                              Ab
    Dentro tuyo, dentro tuyo estan las llaves
    Cm                           Ab
    solo asi solas eseperan tus manos
    Cm                              Ab
    tanto buscar, tanto buscar por afuera
        Cm                Ab
    y ahora te gana el desgano.
    
    
    Es tan dificil decir
    todas las cosas que siento
    a veces yo quiero ver
    solo lo que dice el viento
    
    No necesito que recuerdes ya 
    MI nombre
    
  • Cm      Ab     Bb
    u.....uh u.....uh
    
    Cm
    Uoh bamba uoh bamba
    Ab        Bb
    uoh bamba uoh bamba-ba
    
    Cm      Ab     Bb
    u.....uh u.....uh
    
            Cm
    Dentro tuyo, dentro tuyo
               Ab
    están las llaves,
          Cm
    solas es-solas esperan
        Ab
    tus manos
          Cm
    
  •   1   2   3   4   |
    
    G|--------0000----|----------------|--------0000----|----------------|
    D|------------3-3-|------------3---|------------3-3-|------------3---|
    A|3-----3---------|----1---1-----1-|3-----3---------|----1---1-----1-|
    E|----------------|4-----4---------|----------------|4-----4---------|
    
      1   2   3   4   |
    
    G|--------0000----|----------------|
    D|------------3-3-|------------3---|
    A|3-----3---------|----1---1-----1-|
    E|----------------|4-----4---------|
    
    
      DENTRO TUYO ESTÁN LAS LLAVES...
    
      1   2   3   4   |
    
    G|--------0000----|----------------|--------0000----|----------------|
    D|------------3-3-|----------------|------------3-3-|----------------| X2
    A|3-----3---------|------4---------|3-----3---------|------4---------|
    E|----------------|4-------4-3-4---|----------------|4-------4-3-4---|
    
      1   2   3   4   |
    
    G|----------------|----------------|----------------|----------------|
    D|--------1111----|----------------|--------1111----|----------------| X2
    A|3-----3---
  • +
    ¡Colabora con nosotros!
    Envíanos tu versión de esta canción
  • Tutorial
    HD
    Explicado - Como tocar "El farolito" de Los piojos en el bajo tutorial#117
    11:14

Letra de El Farolito
Uoh bamba uoh bamba uoh bamba uoh bamba uoh
Dentro tuyo, dentro tuyo estan las llaves
tanto buscar, tanto buscar por afuera
y ahora te gana el desgano.
Es tan dificil decir
todas las cosas que siento
a veces yo quiero ver
No necesito que recuerdes ya
no necesito que me digas adonde
queres llegar
y si conmigo estas vengandote
de un hombre
no es necesario que preguntes
que es lo que te quiero dar
Porque ahora yo quiero ver
tus piernas nena tan fuertes
atrapandome en su red
llevandome para siempre
Dame un poquito
de tu amor
(Para el corazon)
dame un poquito
por favor
(que no viene mal)
un farolito
de ilusion
(para el corazon)
dejame que te vea
cerquita, cerquita
por hoy
que no viene mal
Oh bamba...
Asi que te quiero ver
remando nena muy fuerte
a veces podes perder
y creo que hoy tenemos suerte
dame un poquito...
Solamente quiero oir
todas las cosas que siento..




[El Farolito chords][El Farolito cifra]
© LaCuerda.net · aviso legal · privacidad · es · en · pt · contacto