Acordes de Guitarra » P »los Piojos » Cruel (Tab)

Cruel
los Piojos

Letras, Acordes y Tabs para Guitarra, Bajo y Ukulele

  •  LA    
     Un mundo cruel 
     SOL
     una noche cruel 
     DO
     una ciudad dormida 
     MI
     y sin sueños 
     LA
     un beso final,
     SOL
     sonrisa y después 
     DO
     te vas alejando 
     MI
     sin remedio. 
     
     Nunca te ví en ningún aviso 
     nunca te ví en la televisión 
     nunca te ví en ningún diario 
    
  • Intro : D5
    
    
    Luego hace esto en el intro varias veces:
    
    
    ------------------------
    ------------------------
    --------3-5-0-3---------
    -5-5--------------------
    -5-5--------------------
    -3-3--------------------
    
    
    
    
    G5
    Un mundo cruel
    F5
    una noche cruel
    
  •    D5
    e|--------------|--||
    b|--------------|--||
    g|-7-7----------|--||
    d|-7-7----------|x4||
    a|-5-5----------|--||
    E|--------------|--||
    (entra bateria)
    
    Guitarra 1:
    Riff G 
    e|--------------|--||
    b|--------------|--||
    g|----3-5----3-3|--||
    d|-5-5---5-5----|x8||
    a|--------------|--||
    E|--------------|--||
    Guitarra 2:
    (escuchar bien)
    e|---------|----------|----------|----------|--||
    
  • Intro
    G|------------------------|x4
    D|------------------------|
    A|-55---555---555---555---|
    E|----3-----3-----3-----3-|
    
    Verso
    G|-------------------------------------|x2
    D|-------------------------------------|
    A|----------------------------5-5(x12)-|
    E|-3-3(x12)-1-1(x12)-6-6(x12)----------|
    
    Coro
    G|-------------------------------------|x2
    D|-------------------------------------|
    A|----------------------------5-5(x12)-|
    E|-3-3(x12)-1-1(x12)-6-6(x12)----------|
    
    Intro
    G|------------------------|x4
    D|------------------------|
    A|-55---555---555---555---|
    E|----3-----3-----3-----3-|
    
    Verso
    G|-------------------------------------|x2
    D|-------------------------------------|
    A|----------------------------5-5(x12)-|
    E|-3-3(x12)-1-1(x12)-6-6(x12)----------|
    
    Coro
    G|-------------------------------------|x2
    D|-------------------------------------|
    A|----------------------------5-5(x12)-|
    E|-3-3(x12)-1-1(x12)-6-6(x12)----------|
    
    Intro
    G|-----------------------
  • +
    ¡Colabora con nosotros!
    Envíanos tu versión de esta canción
  • Tutorial
    HD
    Explicado - Como tocar "Cruel" de Los Piojos en el bajo tutorial#242
    10:02

Letra de Cruel
Un mundo cruel
una noche cruel
una ciudad dormida
y sin sueños
un beso final,
sonrisa y después
te vas alejando
sin remedio.

Nunca te ví en ningún aviso
nunca te ví en la televisión
nunca te ví en ningún diario
nunca nunca nunca escuché tu voz...
Lavan tu razón
queman tu corazón
la única aventura es ver
colores.
Te despertaré
despertame ya
de esta pesadilla
de ilusiones.
Nunca te ví en ningún aviso
nunca te ví en la televisión
nunca te ví en ningún diario
nunca nunca nunca escuché tu voz...

Una noche mas ya no voy a dormir
en tus brazos.
No sé que me tomo, no sé donde estoy
no sé hacia donde van mis pasos
Que rara y vacía y desierta y perdida
está la avenida hoy
que rara y vacía y desierta y perdida
estás...
somos fantasmas peleándole
al viento
somos fantasmas peleándole
al viento.




[Cruel chords][Cruel cifra]
© LaCuerda.net · aviso legal · privacidad · es · en · pt · contacto