Acordes de Guitarra » P »los Piojos » Babilonia (Tab)

Babilonia
los Piojos

Letras, Acordes y Tabs para Guitarra, Bajo y Ukulele

  •   C#5
    e|----------|----------------|--|-----------||--||
    b|----------|----------------|--|-----------||--||
    g|6~~~~~~~--|----------------|--|-----------||--||
    d|6~~~~~~~--|----------0h1p0-|x3|-----------||x2||
    a|4~~~~~~~--|-0-1-2-2--------|--|-0-1-2-2-0-||--||
    E|----------|2---------------|--|2---------2||--||
    Guitarra 2:
      C#5
    e|----------|----------------|--|-----------||--||
    b|----------|----------------|--|-----------||--||
    g|6~~~~~~~--|----------------|--|-----------||--||
    d|6~~~~~~~--|----------0h1p0-|x3|-----------||x2||
    a|4~~~~~~~--|-0-1-2-2--------|--|-0-1-2-2-0-||--||
    E|----------|2---------------|--|2---------2||--||
    Bajo:
    g|----------|----------------|--|-----------||--||
    d|----------|----------------|--|-----------||x2||
    a|4---------|-0-1-2-----2----|x3|-0-1-2--2--||--||
    E|----------|2------------2--|--|2---------2||--||
    
  • C#
    vete bobo.......
    vete bobo x4
    
    B (con riff 1)
    Vete bobo
    
    Algo nena, algo esta pasando
    Cae babilonia ya 
    Algo nena, algo esta pasando
    Cae babilonia ya
    Guardia la vieja
    Guarda con vierja
    
    Riff 1 x2
    
    Algo nena, algo esta pasando
                   Riff 3
    Cae babilonia ya
    Algo nena, algo esta pasando
    
  • +
    ¡Colabora con nosotros!
    Envíanos tu versión de esta canción
  • Tutorial
    HD
    Explicado - Como tocar "Babilónia" de Los Piojos en el bajo tutorial#250
    5:34

Letra de Babilonia
Guitarra 2:
Bajo:
Verso 1:
Guitarra 1:
(canal derecho)
Guitarra 2:
(canal izquierdo)
Bajo:
(todo sobre B7)
Algo nena, algo está pasando
cae Babilonia ya
Algo nena, algo está pasando
cae Babilonia ya
Guitarra 1:
(canal derecho)
Guitarra 2:
(canal izquierdo)
Bajo:
(sobre B7)
guardia la vieja,
guardia con vierja
Verso 2:
(Igual al verso 1)
Guitarra 3:
Fill 1
b|7h10-10/12-12-|
Algo nena, algo está pasando
cae Babilonia ya (Fill 1)
Algo nena, algo está pasando
cae Babilonia ya
(Igual al puente anterior)
Guitarra 3:
Fill 2 Fill 3
guardia la vieja (fill 2)
guardia con vierja (fill 3)
(silencio)
Vete bobo, vete bobo...
Corte:
(atentos con la modulación)
Guitarra 1:
Guitarra 2:
Coda:
Guitarra 1 y 2: Igual
Guitarra 3:
Fill 4 Fill 5
Entra el bajo con la modulación:
(guitarras igual)
Algo nena, arde Babilonia
Algo nena, arde Babilonia
Tanto tiempo ha pasado
y vuelve a pasar (fill 4)
Tantas cosas han pasado
y vuelve a pasar (fill 5)
Algo nena, algo está pasando
cae Babilonia ya
Algo nena, algo está pasando
cae Babilonia ya
Fin:
Guitarra 1:
Guitarra 2:
Bajo:
Algunas anotaciones:
-Pongo los canales así saben donde escuchar
(especialmente los fills medios inaudibles)
-Cuando pongo los fills en guitarra 3 es porque en la mezcla
hay una tercer guitarra (metida asquerosamente más fuerte)
-Algunos fills del final no los pongo porque no son bajitos y
se torna más extraño poniendolo
-Las partes rítmicas de la segunda guitarra no es necesario ponerlas
con el acorde me parece suficiente, el ritmo sale siempre




[Babilonia chords][Babilonia cifra]
© LaCuerda.net · aviso legal · privacidad · es · en · pt · contacto
DINAMICO