Acordes de Guitarra » P »los Piojos » Ando Ganas (llora llora) (Tab)

Ando Ganas (llora llora)
los Piojos

Letras, Acordes y Tabs para Guitarra, Bajo y Ukulele

  •       Dm*    C*
     1°|--0------0---
     2°|--3------3---
     3°|--2------0---
     4°|--0------2---
     5°|--x------3---
     6°|--x------0---
    
    
    Intro: Dm-(Dm7-Dm-Dm*)-C-(C*-C-C*) X2
    
    Dm         Dm7          Dm  (Dm*)
    Ando ganas de encontrarte
    C           C*           C    C*
    cuánto lejos que estás acá
    Dm         Dm7          Dm  (Dm*)
    ando ganas de encontrarte
    C           C*           C    C*
    ando lejos, más no me da
    Dm    Dm7   Dm       (Dm*)
    
  • Dm
    Ando ganas de encontrarte
    C
    cuanto lejos estas de acá
    Dm
    ando ganas de encontrarte
    C
    ando lejos, más no me da
    
    Dm
    LLora, llora, llora mi pena de amor
    C
    Llora, llora, llora mi pena por vos
    Dm                                     C
    Llora, llora, llora mi pena de amor y amale
    
    
    Estribillo:
    F
    A mi si que me gustan tus piernas mecerse
    
  •   Dm
    e-1-----1-----3-----3-----3----1-----1-----0-----0-----0--
    B---3-----3-----3-----3----------3-----3-----2-----3------
    G-----2-----2-----2-----2----------2-----2-----3-----1----
    D-0-------------------------------------------------------
    A---------------------------------------------------------
    E---------------------------------------------------------
    
      C
    e---------------------------------------------------------
    B-1-----1-----3-----3-----3----1-----1-----3-----3-----3--
    G---0-----0-----0-----0----------0-----0-----0-----0------
    D-----2-----2-----2-----2----------2-----2-----2-----2----
    A-3----------------------------3--------------------------
    E---------------------------------------------------------
    
    
      Dm
    e-1-----1-----3-----3-----3----1-----1-----0-----0-----0--
    B---3-----3-----3-----3----------3-----3-----2-----3------
    
  • +
    ¡Colabora con nosotros!
    Envíanos tu versión de esta canción

Letra de Ando Ganas (llora llora)
Ando ganas de encontrarte
cuánto lejos que estás acá
ando ganas de encontrarte
ando lejos, más no me da
Llora, llora, llora mi pena de amor
llora, llora, llora mi pena por vos
llora, llora, llora mi pena de amor
y amale
A mí sí que me gustan tus piernas mecerse
como si fueran olas
Por lo que se ve
me gustó tu mar y tu
canoa
Ando ganas de encontrarte
de una buena vez por todas
el invierno largo se fue
y ya cambiaron las modas
Llora, llora, llora mi pena de amor
llora, llora, llora mi pena por vos
llora, llora, llora mi pena de amor
y amale...
A mí sí que me gustan tus piernas mecerse
como si fueran olas
por lo que se ve
me gusto tu mar y tu
canoa.
Puenteo en: Dm-(Dm7-Dm-Dm*)-C-(C*-C-C*)
A mí sí que me gustan tus piernas mecerse
como si fueran olas
por lo que se ve
me gusto tu mar y tu
canoa.
Sólo una cosa te digo yo necesito un abrigo
que en esta tierra hace frío si no estás al lado mío
y como vos no hay ninguna no brilla tanto la luna
ando ganas de encontrarte quiero llevarte pa marte
Mantiene: Dm-(Dm7-Dm-Dm*)-C-(C*-C-C*)
y al final hace 3 rasguidos fuertes hacia abajo un Dm




[Ando Ganas (llora llora) chords][Ando Ganas (llora llora) cifra]
© LaCuerda.net · aviso legal · privacidad · es · en · pt · contacto