Tab p/Bajo de Patricio Rey y sus Redonditos de Ricota: Fanfarria del cabrío
Patricio Rey y sus Redonditos de Ricota  corregir
Luzbelito [1996]
Intro.
G|-------------------------|--|--------------------------|-------------------------||
D|-------------------------|X4|------------------(3)-(5)-|----------------(3)-(5)--||
A|---------------(4)-(3)---|--|---------------(4)--------|------------(4)----------||
E|-(3)-0-3-3---3---------0-|--|--(3)-0-3-3---3-----------|--0-3-3---3--------------||

Verso 1.
G|-------------------------|--|--------------------------|-------------------------||
D|-------------------------|X4|------------------(3)-(5)-|----------------(3)-(5)--||
A|---------------(4)-(3)---|--|---------------(4)--------|------------(4)----------||
E|-(3)-0-3-3---3---------0-|--|--(3)-0-3-3---3-----------|--0-3-3---3--------------||

Estribillo 1.
G|-----------------------------||
D|-----------------------------||X4
A|-(3)-0-3-3---5---------------||
E|----------------(3)-0-3-3--3-||

Verso 2.
G|----------------------------||
D|----------------------------||X4
A|-(4)-(3)--------------------||
E|--------------0-(3)-0-3-3--3||

Verso 3.
G|----------------------------|--|--------------|
D|----------------------------|X3|-----(3)---(5)|
A|-(4)-(3)--------------------|--|(4)-----------|
E|--------------0-(3)-0-3-3--3|--|--------------|

Solo de saxo.
G|-----------------------------||
D|-----------------------------||X4
A|-(3)-0-3-3---5---------------||
E|----------------(3)-0-3-3--3-||

Verso 4.
G|----------------------------|--|--------------|
D|----------------------------|X3|-----(3)---(5)|
A|-(4)-(3)--------------------|--|(4)-----------|
E|--------------0-(3)-0-3-3--3|--|--------------|

Fin.
G|---------------------|----------------|          |---------------||
D|---------------------|----------------| y final  |---5-------(5)-||X16 fade out
A|-(4)-----------------|-(4)------------|          |---------------||
E|---------(3)-0-3-3--3|-----(3)-0-3-3--|          |-3--3----3-----||



Espero que les sirva...
Este fichero es trabajo propio de su transcriptor y representa su interpretación personal de la canción. El material contenido en esta página es
para exclusivo uso privado, por lo que se prohibe su reproducción o retransmisión, así como su uso para fines comerciales.


Otras canciones del Artista

© LaCuerda.net · Aviso Legal · Privacidad