Tablatura para Guitarra de Patricio Rey y sus Redonditos de Ricota: Etiqueta negra
Conexión · Inscripción
Letras y Acordes
Pantalla Completa
Imprimir
Versión Texto
Añadir Favorito
Otras Versiones

Mostrar Diagramas
Desfile Automático
Manipular Acordes
Formato del Texto


Etiqueta negra(TAB)

Patricio Rey y sus Redonditos de Ricota

calidad:
redo0306
AUTOR: Solari-beilison
ALBUM: Lobo suelto-Cordero atado
Enviado por miguel
Está perfecta la tab de Guillermo, aunque me suena mejor al final
de cada verso, hacer Lam con cejilla :)

Solo del final:

Base: LAm - Re - Fa (Am - D - F)

   4:11
   Lam      4:15         4:18              4:23
E|-(5)-----------------|-----------------|---------------------------|
B|-(5)-----------------|-----------------|---------------------------|
G|-(5)--/-7b----5-7-/9-|-----5-----------|---------------------------|
D|-(7)-----------------|-5-7---5--7------|---------------------------|
A|-(7)-----------------|------------7~~--|---3-3-3/5-5-5-5-5b~5b~5---|
E|-(5)-----------------|-----------------|-5-------------------------|

  4:28               4:32               4:35
E|-----------------|------------------|----------------------|
B|-----------------|-10--10/12b-------|----------------------|
G|-----------------|------------------|-7-5-7-7b---7b--7b----|
D|---------5/7~----|------------------|----------------------|
A|-3---------------|------------------|----------------------|
E|---5-3-5---------|------------------|----------------------|

   4:41                4:44
E|--------------------|-------------------------|
B|--------------------|-------------------------|
G|-7-5-----5---7b--7--|-----5-5-4-5-7-----------|
D|-----7-5------------|-5-7-----------5-5/7-7~--|
A|--------------------|-------------------------|
E|--------------------|-------------------------|

  4:50
E|---------------------------------|
B|---------------------------------|
G|---------------------7--5--7p5~--|
D|-7-7-/9-9-9-9-9--7--------------|
A|---------------------------------|
E|---------------------------------|

   4:59                             5:07
E|--------------------------------|---------------------------------|
B|---13--10~---13-12---15-13--17~-|---------------------------------|
G|-9------------------------------|--7b-p5-7b-7b-7b-7b-7b-7b-7b-7b~-|
D|--------------------------------|---------------------------------|
A|--------------------------------|---------------------------------|
E|--------------------------------|---------------------------------|

  5:12            5:15
E|--------------|----------------------------------------|
B|--------------|-6-5------------------------------------|
G|-7p5---5------|-----7~p5-7~p5-7b-7b-7b-7b-7b-7b-7b/9~--|
D|-----7---7~---|----------------------------------------|
A|--------------|----------------------------------------|
E|--------------|----------------------------------------|

  5:21                     5:26
E|-----------------------|--------10b--
B|--------10--10~-/-13b--|-10--13------
G|-9--12-----------------|------------- sigue en fade out...
D|-----------------------|-------------
A|-----------------------|-------------
E|-----------------------|-------------


Desde La Plata, "Miguel Sánchez y los desterrados..."
En breve subo el solo a youtube. Saludos!

Esto esta muy shangai!
Este fichero es trabajo propio de su transcriptor y representa su interpretación personal de la canción. El material contenido en esta página es
para exclusivo uso privado, por lo que se prohibe su reproducción o retransmisión, así como su uso para fines comerciales.
© LaCuerda.net · Aviso Legal · Privacidad