Tablatura para Bajo de Pappo: Trabajando en el ferrocarril
Conexión · Inscripción
Letras y Acordes
Pantalla Completa
Imprimir
Versión Texto
Añadir Favorito
Otras Versiones

Mostrar Diagramas
Desfile Automático
Formato del Texto


Trabajando en el ferrocarril(BAJ)

Pappo

calidad:
papp0282
AUTOR: Pappo  corregir
ALBUM: Pappo's blues 3 (1973)
Enviado por victor
Aca va la version corregida del tema. Esta esta bien

G|------------------------------------------------------|
D|------------------------------------------------------|
A|4--------1-2-3-4--------4-4-6-4--3--1-------------4-4-|
E|---4-3-2---------1--3-4----------------4---2-2-4---4-4|

“Todas las semanas voy a trabajar voy con muchas ganas y
 con felicidad”
G|------------------------------------------------------|
D|------------------------------------------------------|
A|4--------1-2-3-4--------4-4-6-4--3--1-------------4-4-|
E|---4-3-2---------1--3-4----------------4---2---4---4-4|

G|------------------------------------------------------|
D|------------------------------------------------------|
A|4--------1-2-3-4--------4-4-6-4--3--1-------------4-4-|
E|---4-3-2---------1--3-4----------------4---2---4---4-4|

 “Si algunas vienes quiere encontrarme a mi trabajo en
 las vias del ferrocarril”
G|------------------------------------------------------|
D|------------------------------------------------------|
A|4--------1-2-3-4--------4-4-6-4--3--1-------------4-4-|
E|---4-3-2---------1--3-4----------------4---2-4-4---4-4|

G|------------------------------------------------------|
D|------------------------------------------------------|
A|4--------1-2-3-4--------4-4-6-4--3--1-------------4-4-|
E|---4-3-2---------1--3-4----------------4---2---4---4-4|

 “Muchas veces cuando yo voy muy lejos de aquí recuerdo
 la historia del ferrocarril
G|------------------------------------------------------|
D|------------------------------------------------------|
A|4--------1-2-3-4--------4-4-6-4--3--1-------------4-4-|
E|---4-3-2---------1--3-4----------------4---2---4---4-4|

G|------------------------------------------------------|
D|------------------------------------------------------|
A|4--------1-2-3-4--------4-4-6-4--3--1-------------4-4-|
E|---4-3-2---------1--3-4----------------4---2---4---4-4|

Mientras su musica se siga tocando y escuchando el carpo jamas
morira, vivira eternamente en la memoria de todos...
e-mail: zarathustra4321@hotmail.com
Este fichero es trabajo propio de su transcriptor y representa su interpretación personal de la canción. El material contenido en esta página es
para exclusivo uso privado, por lo que se prohibe su reproducción o retransmisión, así como su uso para fines comerciales.

© LaCuerda.net · Aviso Legal · Privacidad