Acordes de Guitarra » P »Pappo » Todavía sigo en pie (Tab)

Todavía sigo en pie
Pappo

Letras, Acordes y Tabs para Guitarra, Bajo y Ukulele

  • 0:04                     “Cuando mas te estoy buscando, fue cuando menos…”
    G|----------------------------------------------------------------
    D|----------------------------------------------------------------
    A|-----------------------------3-4-5-------5-------5-------5---5--
    E|-5---0---5---0---5---0---5-5---------5-------5-------5----------
                              “Cuando mas te fui buscando, fue cuando menos…”
    G|----------------------------------------------------------------
    D|----------------------------------------------------------------
    A|-------------------------------3-5-------5-------5-------5---5--
    E|-5---0---5---0---5---0---5---5-------5-------5-------5----------
                              “Y a través de estos años, todavía sigo en pie”
    G|----------------------------------------------------------------
    D|----------------------------------------------------------------
    A|-------------------------------5-7-------7---6---5-------5---5--
    E|-5---0---5---0---5---0---5-
  • +
    ¡Colabora con nosotros!
    Envíanos tu versión de esta canción






[Todavía sigo en pie chords][Todavía sigo en pie cifra]
© LaCuerda.net · aviso legal · privacidad · es · en · pt · contacto