Acordes de Guitarra » P »Pappo » Sofisticuatro (Tab)

Sofisticuatro
Pappo

Letras, Acordes y Tabs para Guitarra, Bajo y Ukulele

  • Aca les va un temazo de Aeroblus, para mi el mejor del disco.
    Esta transcripcion esta hecha del disco de album “Aeroblus” (1976)
    La afinación del bajo en este tema y en todo el disco es un poco mas grave
    de la comun(440).
    
         (8 veces)
    G|----------------|
    D|----------------|
    A|----------0--2-5|
    E|-0--2--3--------|
    
    G|------------------------------------------------------------------------|
    D|------------------------------------------------------------------------|
    A|-2-0-2-0-2|2-0-2-0-2-0-2-0-2|2-0-2-3-5-3-5-3-5|5-3-5-3-5-3-5-3-5|5-3-5--|
    E|------------------------------------------------------------------------|
    
    G|------------------------------------------------------------------------|
    D|------------------------------------------------------------------------|
    A|-2-0-2-0-2|2-0-2-0-2-0-2-0-2|2-0-2-5-7-5-7-5-7|7-5-7-5-7-5-7-5-7|7-5-7--|
    E|------------------------------------------------------------------------|
                                    (4 veces)
    G|-6-----------------------
  • +
    ¡Colabora con nosotros!
    Envíanos tu versión de esta canción






[Sofisticuatro chords][Sofisticuatro cifra]
© LaCuerda.net · aviso legal · privacidad · es · en · pt · contacto
DINAMICO