Acordes de Guitarra » P »Pappo » Siempre Es Lo Mismo Nena (Tab)

Siempre Es Lo Mismo Nena
Pappo

Letras, Acordes y Tabs para Guitarra, Bajo y Ukulele

  • e-----------------------]
    b-----------------------]
    g--5----3---------------]
    d--5----3-5--x-x--x-x--x]  REPITE x4
    a--3----1-5--x-x--x-x--x]
    E---------3--x-x--x-x--x]
    
    SOL5(x)                    DO5-SIb5-SOL5
    siempre es lo mismo nena
    SOL5(x)                                   DO5-SIb5-SOL5
    tu madre y tu padre estan convencidos de que un vago soy
    
    
    SOL5(x)     DO5-SIb5-SOL5
    SOL5(x)     DO5-SIb5-DO5
    
    DO5(x)                    DO5-SIb5-DO5
           Siempre es lo mismo nena
    DO5(x)
    si hasta parecen dos verdugos
    
  •    Riff A                                               x2 
    -::-----------------------------------------------------::- 
    -::-----------------------------------------------------::- 
    -::-----------------------------------------------------::- 
    -::------------0-7-5-------------0-7-5-------------0-7-5::- 
    -::-7-7-7-7-7--0-5-3--7-7-7-7-7--0-5-3--7-7-7-7-7--0-5-3::- 
    -::-5-5-5-5-5---------5-5-5-5-5---------5-5-5-5-5-------::- 
    
    Riff B                                  
    -::-------------------------------------::- 
    -::-------------------------------------::- 
    -::-------------------------------------::- 
    -::-9-9-9-9-9-9-9--8--7-7-7-7-7-7-7--5--::- 
    -::-7-7-7-7-7-7-7--6--5-5-5-5-5-5-5--3--::- 
    -::-------------------------------------::- 
    
    Riff C                                  
    -::-------------------------------------::- 
    -::-------------------------------------::- 
    -::-------------------------------------::- 
    
  • (deja pasar una vuelta de guitarra)
    
    0:04                           (2 veces)
    G|----------------------|-----------------------|
    D|----------------------|-----------------------|
    A|-5---3-0---0-0---0-0--|-0-5---3-0---0-0---0-0-|
    E|----------------------|-----------------------|
    
            (4 veces)                       (2 veces)                        \
    G|-----------------------|------|-----------------------|                |
    D|-----------------------|------|-----------------------|                |
    A|-0-5---3-0---0-0---0-0-|-0-5--|-3-5---5-5---5-5---5-5-|                |
    E|-----------------------|------|-----------------------|                |
                                                                             |
    G|---------------------------------------------------------------------- |Parte
    D|---------------------------------------------------------------------- |  A
    A|3-0---0-0---0-0---0-5---3-0---0-0---0-0---0-5---6-7---7-7---7-7---7-7- |
    E|------------------------------------
  • es muy sencillo yo les envió la notas y ustedes luego las ubican
    
    armónica (DO)
    
    aspirar (x)
    soplar x
    bending  B (decir mientra aspiras "fue" o "gue")
    
    
    3 (3) 4  (2)B  varias veces
    
    (2)B
    
    3 (3) 4 (2)B
    
    2 (2)b
    
    3 (3) 4 (2)B
    
    luego...3 (3) 4 (4)
    
    
    esta son las notan es ustedes escuchen el tema y
    se guían es muy sencillo porque no tiene solo.
    pero yo en mi banda le mando igual jajaja saludos...
    paulino ceballo (facebook) thepaulino87 (youtube)
  • +
    ¡Colabora con nosotros!
    Envíanos tu versión de esta canción

Letra de Siempre Es Lo Mismo Nena
siempre es lo mismo nena
tu madre y tu padre estan convencidos de que un vago soy
Siempre es lo mismo nena
si hasta parecen dos verdugos
en plan de ejecución
Trata de reconvencerlos
de lo contrario
entre rejas quedare yo
Sol5(x) Do5-Sib5-Sol5 x2
REPITE EL ESQUEMA:
Siempre es lo mismo nena
el novio de la nena
doctor tiene que ser
siempre es lo mismo nena
ya estoy un poco harto
de aguantar a tu papa o a tu mama, es lo mismo
por qué no vienes conmigo
y juntos viviremos
desde hoy...solos tu y yo,yeah
Mucho que comer no tengo
ni tampoco de esas alcobas
que tu viste por ahi
un par de mantas y una estufa
y hasta tengo un ropero
para tus cosas guardar, porque yo no tengo nada
pero sí tengo algo que sobra y es lindo
que es música, música
siempre si
BAJADA FINAL:




[Siempre Es Lo Mismo Nena chords][Siempre Es Lo Mismo Nena cifra]
© LaCuerda.net · aviso legal · privacidad · es · en · pt · contacto