Acordes de Guitarra » P »Pappo » Sube a mi voiture (Tab)

Sube a mi voiture
Pappo

  • Letra y Acordes
    |-10-10-10-10-10-10-10-10-10-10-10-10--------|--|----------------------------|
    |-10-10-10-10-10-10-10-10-10-10-10-10--------|--|----17b-17b-15--15-17-17b---|
    |--------------------------------------11----|x2|--14----------16------------|
    |------------------------------------------12|--|----------------------------|
    |--------------------------------------------|--|----------------------------|
    |--------------------------------------------|--|----------------------------|
    
    |----------------------------------------17b-17-------------------------------------------|
    |----15-17--15--17-17b-17b--20b-20-19-------------15-17--15---17b-17-15--15---------------|
    |--16-----16-------------------------19---------16-----16--16----------16--16---12-10/11--|
    |-------------------------------------------------------------------------------12-12/12--|
    |-----------------------------------------------------------------------------------------|
    |-----------------------------------------------------------------------------------------|
     D
    yenny es la mujer que amo
    y yo no comprendo por que
                                          corte
    la pasan a buscar
    y ella sin mirar                      sin base
    sube a cualquier mercedez benz
    
  • Tablatura
    e-9/10-10-10-10-10-10-10-10----//
    B-9/10-10-10-10-10-10-10-10----//
    G--------------------------11--//
    D----------------------------12//x2
    A------------------------------//
    E------------------------------//
    
    e---12b12b-12-10--10-12b12b----10-12-10-10-10-12b12b-
    B-10------------12-----------12----------------------
    G----------------------------------------------------
    D----------------------------------------------------
    A----------------------------------------------------
    E----------------------------------------------------
    
    
    e-15b-13----17b17b------10-12-10-10-10-12b-12-10--10--------------
    B-------15----------9/10------------------------12--12/5-12-10/11-
    G--------------------------------------------------------12-10/11-
    D-----------------------------------------------------------------
    A-----------------------------------------------------------------
    E-----------------------------------------------------------------
  • +
    ¡Colabora con nosotros!
    Envíanos tu versión de esta canción
  • Tutorial
    HD
    Como tocar Sube a mi voiture de Pappo en guitarra (tutarras.com.ar)
    15:13
  • Tutorial
    HD
    Explicado - Como tocar "Sube a mi voiture" de Riff / Pappo en el bajo tutorial#270
    5:51

Letra de Sube a mi voiture
yenny es la mujer que amo
y yo no comprendo por que
corte
la pasan a buscar
y ella sin mirar sin base
sube a cualquier mercedez benz
sube a mi voiture
sube a mi voiture
sube a mi voiture
y olvida los mercedez benz
desde mi punto de vista
jenny lo que hace esta mal
corte
ella no mira a quien
se cree que esta bien sin base
lo hace sin saber por que
sube a mi voiture
sube a mi voiture
sube a mi voiture
y olvida los mercedez benz
yenny, la pasan a buscar
yenny, y ella sin mirar
yenny, sube a cualquier mercedez benz
yenny
sube a mi voiture
y olvida los mercedez benz
yenny, ella no mira a quien
yenny, se cree que esta bien
yenny, lo hace sin saber por que
yenny
sube a mi voiture
y olvida los mercedez benz
final



© LaCuerda.net · aviso legal · privacidad · contacto