Tablatura para Bajo de Pappo: Siempre Es Lo Mismo Nena
Conexión · Inscripción
Letras y Acordes
Pantalla Completa
Imprimir
Versión Texto
Añadir Favorito
Otras Versiones

Mostrar Diagramas
Desfile Automático
Formato del Texto


Siempre Es Lo Mismo Nena(BAJ)

Pappo

calidad:
papp0082
AUTOR: Pappo's Blues
ALBUM: Pappo's Blues, Vol. 2
Enviado por victor
(deja pasar una vuelta de guitarra)

0:04                           (2 veces)
G|----------------------|-----------------------|
D|----------------------|-----------------------|
A|-5---3-0---0-0---0-0--|-0-5---3-0---0-0---0-0-|
E|----------------------|-----------------------|

        (4 veces)                       (2 veces)                        \
G|-----------------------|------|-----------------------|                |
D|-----------------------|------|-----------------------|                |
A|-0-5---3-0---0-0---0-0-|-0-5--|-3-5---5-5---5-5---5-5-|                |
E|-----------------------|------|-----------------------|                |
                                                                         |
G|---------------------------------------------------------------------- |Parte
D|---------------------------------------------------------------------- |  A
A|3-0---0-0---0-0---0-5---3-0---0-0---0-0---0-5---6-7---7-7---7-7---7-7- |
E|---------------------------------------------------------------------- |
                                                                         |
G|-----------------------------------------------------------------      |
D|-----------------------------------------------------------------      |
A|-6-5---5-5---5-5---5-5---3-0---0-0---0-0---0-5---3-0---0-0---0-0-      |
E|-----------------------------------------------------------------      |
                                                                         /
Repite parte A (2 vueltas). Después:

3:02                                     -
G|------------------------------------------------------------------------
D|-------------------------------------5-7--7-7-7-7-7--7-7-7-7-5-7-7-7-7-7
A|-0-5---3-0---0-0---0-0---0-0-4-5-6-7------------------------------------
E|------------------------------------------------------------------------

               -
G|-5------------------------------------------------------------
D|---7-5---5-5-7--7-7-7-7-7--7-7-7-7-7-7-7-5---5---5-7-5---5-7-7
A|-------7-----------------------------------7---7-------7------
E|--------------------------------------------------------------

   -                                         -
G|----------------------------------------------------------------
D|------------------------------------------------------4--4-4-4-4
A|-0--0-0-0-4--4-4-4-4-5--5-5-5-5-6--6-6-6-6-7--7-7-7-7-----------
E|----------------------------------------------------------------

                          -                                      -
G|-------------------------------------------------------------------------
D|-5--5-5-5-5-6-6-6-6/17--0---0-4--4-4-4-4-5--5-5-5---6--6-6-7-7-----------
A|---------------------------------------------------------------5--5-5-5-5
E|-------------------------------------------------------------------------

                                   -
G|----------------------------------------------------------------------------
D|-4--4-4-4-4-5--5-5-5-5-6--6-6-7---------------------------------------------
A|---------------------------------0--0-0-0--4--4-4-4-4-5--5-5-5-5-6--6--7|7|7
E|----------------------------------------------------------------------------

3:41
  -                                           -
G|----------------------------------------------------------------------------
D|------------------------------------------------------------------5--5-5-5-5
A|0--0-0-0-0-4--4-4-4-4-5--5-5-5-5-6--6-6-6-6-7--7-7-7-7-7--7-7-7-7-----------
E|----------------------------------------------------------------------------

            -                                         -
G|------------------------------------------------------------------
D|-7--5-------------------------------------------------------------
A|-------7--5--5-5-5-5-3--3-3-3-3-2--2-2-2-2-1--1--1--0---0-0---0-0-
E|------------------------------------------------------------------

                    -                                         -
G|---------5------------------------------------------------------------
D|-----5------7--5--7--7-7-7-7-7--7-7-7-7-5---5---5--5--5--6--7--7-7-7-7
A|-5h7---7----------------------------------7---7-----------------------
E|----------------------------------------------------------------------

                                 -
G|----------------------------------------------------------------------
D|-5--5-5-5-5-4--4-4-4------------------------------------------------5-
A|----------------------7--5--7--0---0-0-0-4--4-4-4---5--5-5-5--6--7----
E|----------------------------------------------------------------------

   -                                           -
G|------------6--6-6-6-6-7--7-7-7-7-8--8-8-8-8-9--9-9-9-9-11-11-11-11-11-11
D|-7--7-7-7-7--------------------------------------------------------------
A|-------------------------------------------------------------------------
E|-------------------------------------------------------------------------

                                       -
G|-12-12-12-12-12-12-13-13-13-13-14-14------------------------------
D|-------------------------------------0--0-0-0--4--4-4-4--5--5-5-5-
A|------------------------------------------------------------------
E|------------------------------------------------------------------

              -                                         -
G|-----------------------------------------------------------------------
D|-6--6-6-7\--0--0-0-0--4--4-4-4--5--5-5-5--6-6-6-6-7\-------------------
A|------------------------------------------------------0---0-0|4--4-4-4-
E|-----------------------------------------------------------------------

                          -                               -
G|--------------------------------------------------------------------------
D|------------------5|5|5|7---7--5---5--4--4--4-----------------------------
A|-5--5-5-5-5-6--7-------------------------------7--5--6--7---7-7--7-7-7--7-
E|--------------------------------------------------------------------------

                   -                                        -
G|----------------------------------------------------------------------------
D|-------7-5-----------------4--4-4-4--5--5-5-5--6--6-6-7\--------------------
A|7-7-7------7--0--5--5-5-5---------------------------------0--0-0-0--0--0-0-0
E|----------------------------------------------------------------------------

                        -
G|-----------------------------------------------
D|-----------7-5---------------------------------
A|-0--0-0-0------7-5-7--0--0-0-0--0--0-0-0--0--0-
E|-----------------------------------------------

4:58
        (4 veces)                       (2 veces)
           …mucho que…                    …un par de mantas…
G|-----------------------|------|-----------------------|
D|-----------------------|------|-----------------------|
A|-0-5---3-0---0-0---0-0-|-0-5--|-3-5---5-5---5-5---5-5-|
E|-----------------------|------|-----------------------|

                     …porque yo no tengo nada…  …pero si tengo algo que…
G|-----------------------------------------------------------------------
D|-----------------------------------------------------------------------
A|-3-0---0-0---0-0---0-5---3-0---0-0---0-0---0-5---6-7---7-7---7-7---7-7-
E|-----------------------------------------------------------------------

      …que es musica…                  …oh…        …no!”
G|--------------------------------------------------------------------14------
D|----------------------------------------------------------------------------
A|6-5--------------------------------4---4-5---5-6---6-7------7---0-----------
E|--------------------0--3--4--5---5------------------------------------------

Los guiones desde el tiempo 3:02 al 4:58 los puse para indicar el comienzo
de cada compas de 4 segundos que duran segundos aproximadamente.
Atencion: La afinacion de este tema esta medio semitono mas agudo que
la comun (La 440)

     /: slide up (“arrastrar” hacia adelante)
     \: slide down (“arrastrar hacia atrás)
     h: hammer on (ligado)
 x |x : tocar las dos notas consecutivamente rápido por Ej. 5|5


Siempre es lo mismo nena (Pappo)

Siempre es lo mismo nena,
tu padre y tu madre,
están convencidos de que un vago soy

Siempre es lo mismo nena,
si hasta parecen dos verdugos,
en plan de ejecución

Trata de reconvencerlos,
o de lo contrario,
entre rejas quedaré yo

Siempre es lo mismo nena,
el novio de la nena,
doctor tiene que ser

Siempre es lo mismo nena,
ya estoy un poco harto,
de aguantar a tu papá,
o a tu mamá, es lo mismo.

Porqué no vienes conmigo,
que juntos viviremos,
desde hoy.

Mucho que comer no tengo,
ni tampoco tengo alcoba,
de las que viste por ahí.

Un par de mantas y una estufa,
y hasta tengo un ropero,
para tus cosas guardar,
porque yo no tengo nada.

Pero si tengo algo que sobra
y es lindo;
que es música, música,
siempre sí!


Mientras su musica se siga tocando y escuchando el carpo jamas morira,
vivira eternamente en la memoria de todos.
Este fichero es trabajo propio de su transcriptor y representa su interpretación personal de la canción. El material contenido en esta página es
para exclusivo uso privado, por lo que se prohibe su reproducción o retransmisión, así como su uso para fines comerciales.

© LaCuerda.net · Aviso Legal · Privacidad