Acordes de Guitarra » P »los Panchos » Historia de un amor (Tab)

Historia de un amor
los Panchos

Letras, Acordes y Tabs para Guitarra, Bajo y Ukulele

  • INTRO: LAm REm MI7 LAm SOL FA MI7 LAm        ORIGINAL LA#m (CEJILLA 1)
    
    LAm                  REm
    Ya no estás mas a mi lado corazón
    MI7             LAm
    en el alma solo tengo soledad
                     SOL
    y si ya no puedo verte
                           FA
    porque Dios me hizo quererte
                        MI7  LAm
    para hacerme sufrir más.
    
                        REm
    Siempre fuiste la razón de mí existir
    MI7           LAm
    adorarte para mí fue religión
                           SOL
    y en tus besos yo encontraba
                        FA
    
  • Gm7                         Am7(b5)             D7(b9)
    Ya no estas más a mi lado corazón
        D7           Gm9                     Gm7
    En el alma solo tengo soledad
                     F9          F7
    Y si ya no puedo verte
               Eb69
    Porque Dios me hizo quererte
    Edim7                D7            D/C   Bb13
    Para hacerme sufrir más
    
    
    Ebmaj9             Am7 (B5)                 D9 (#11)
    Siempre fuiste la razón de mí existir
    D9 D9         Gm7    Gm7        Ebmaj7
    Adorarte para mí fue religión
               F69
    En tus besos yo encontraba
                     Eb69
    El calor que me brindaba
    
  • Estos son los primeros tabs que mando de un bolero, espero les guste!!!
    
    
    e|------0--0--0--1------------|----------------0--------|
    B|--------------3--3--0--1--3-|------3--3--3--1--1--0—1-|            
    G|----------------------------|--------------------2----|   
    D|-2--2-----------------------|-2--2--------------------|
    A|----------------------------|-------------------------|
    E|----------------------------|-------------------------|
    
    
    e|-------------------------|--------------------|-----------------|
    B|------1--1--1--0--3--0---|-0--0--0--0--0--1---|-----------1--0--|
    G|-------------------------|---------------2--2-|------2--1-----2-|
    D|-2--2--------------------|--------------------|-2--2------------|
    A|-------------------------|--------------------|-----------------|
    E|-------------------------|--------------------|-----------------|
    
    
      (Se repite 2 veces)
    e|----------------------------------|
    B|-1--0--0--1--0--3--3--1--0--0-----|
    G|-----2----------------------
  • +
    ¡Colabora con nosotros!
    Envíanos tu versión de esta canción

Letra de Historia de un amor
Ya no estás mas a mi lado corazón
en el alma solo tengo soledad
y si ya no puedo verte
porque Dios me hizo quererte
para hacerme sufrir más.
Siempre fuiste la razón de mí existir
adorarte para mí fue religión
y en tus besos yo encontraba
el calor que me brindaba
el amor y la pasión.
Es la historia de un amor
como no hay otro igual
que me hizo comprender
todo el bien, todo el mal,
que le dio luz a mi vida
apagandola despues
ay que vida tan oscura
sin tu amor yo morire.
Es la historia de un amor
como no hay otro igual
que me hizo comprender
todo el bien, todo el mal,
que le dio luz a mi vida
apagandola despues
ay que vida tan oscura
sin tu amor yo moriré.
Es la historia de un amor.




[Historia de un amor chords][Historia de un amor cifra]
© LaCuerda.net · aviso legal · privacidad · es · en · pt · contacto