Tablatura para Guitarra de los Panchos: Historia de un amor
Conexión · Inscripción
Letras y Acordes
Pantalla Completa
Imprimir
Versión Texto
Añadir Favorito
Otras Versiones

Mostrar Diagramas
Desfile Automático
Manipular Acordes
Formato del Texto


Historia de un amor(TAB)

los Panchos

calidad:
pnch0622
AUTOR: Carlos Almarán
ALBUM: Asi Cante Con los Panchos, Vol. 3
Enviado por Israel
Estos son los primeros tabs que mando de un bolero, espero les guste!!!


e|------0--0--0--1------------|----------------0--------|
B|--------------3--3--0--1--3-|------3--3--3--1--1--0—1-|            
G|----------------------------|--------------------2----|   
D|-2--2-----------------------|-2--2--------------------|
A|----------------------------|-------------------------|
E|----------------------------|-------------------------|


e|-------------------------|--------------------|-----------------|
B|------1--1--1--0--3--0---|-0--0--0--0--0--1---|-----------1--0--|
G|-------------------------|---------------2--2-|------2--1-----2-|
D|-2--2--------------------|--------------------|-2--2------------|
A|-------------------------|--------------------|-----------------|
E|-------------------------|--------------------|-----------------|


  (Se repite 2 veces)
e|----------------------------------|
B|-1--0--0--1--0--3--3--1--0--0-----|
G|-----2-----------------------2--1-|
D|----------------------------------|
A|----------------------------------|
E|----------------------------------|


e|-0--------0--1--0-|------------------0-|
B|--3--1--3--1------|-3--1--0--1--3--0---|
G|------------------|--------------------|
D|------------------|--------------------|
A|------------------|--------------------|
E|------------------|--------------------|


e|---------------------|-----------------|
B|-1--0--0--1--0--3--3-|-3--1--0---------|
G|-----2---------------|--------2--0-----|
D|---------------------|------------3--2-|
A|---------------------|-----------------|
E|---------------------|-----------------|

Alguna duda o comentario, me buscan en mi mail.
Este fichero es trabajo propio de su transcriptor y representa su interpretación personal de la canción. El material contenido en esta página es
para exclusivo uso privado, por lo que se prohibe su reproducción o retransmisión, así como su uso para fines comerciales.

© LaCuerda.net · Aviso Legal · Privacidad