Acordes de Guitarra » O »Octavia » Tendida como un arco (Tab)

Tendida como un arco
Octavia

Letras, Acordes y Tabs para Guitarra, Bajo y Ukulele

  • Intro: Dm - C (2 veces)
    
    Dm                C                        Dm
    Tendida como un arco el alma tuve 
    Dm               C                  Dm
    Y un deseo como una águila que sube
    Gm                    F
    Partió la flecha y se perdió en el aire 
    Gm                  Dm                  C - Dm 
    Lanzose el ala y se perdió en la nube. 
    
    Dm - Bb - F - G - C - G - Dm - C - Dm 
    
    G - F - Dm - Bb - Dm 
    
    Gm                    F 
    Partió la flecha y perdió en el aire
    Gm                  Dm                  C - Dm
    Lanzose el ala y se perdió en la nube
  •     Dm7   C   Gm7   F    G
    e----1----0----3----1----3------
    G----1----1----3----1----0------
    B----2----0----3----2----0------
    D----0----2----3----3----0------
    A---------3----5----3----2------
    E--------------3----1----3------
    
    
    INTRO:
    
    
       Dm7                             Dm7             C 
    e-----1--0-1---1-----1--0-1---1-|-----1--0-1---1------0-----0-0------
    G------1-----1--------1-----1---|------1-----1----------1-1--1-------
    B---2--------------2------------|---2--------------------------------
    D--0--------------0-------------|--0----------------2----------------
    A-------------------------------|------------------3-----------------
    E-------------------------------|------------------------------------
    
    
  • +
    ¡Colabora con nosotros!
    Envíanos tu versión de esta canción

Letra de Tendida como un arco
Tendida como un arco el alma tuve
Y un deseo como una águila que sube
Partió la flecha y se perdió en el aire
Lanzose el ala y se perdió en la nube.
Partió la flecha y perdió en el aire
Lanzose el ala y se perdió en la nube




[Tendida como un arco chords][Tendida como un arco cifra]
© LaCuerda.net · aviso legal · privacidad · es · en · pt · contacto
DINAMICO