Acordes de Guitarra » O »Octavia » Ya que no estás (Tab)

Ya que no estás
Octavia

Letras, Acordes y Tabs para Guitarra, Bajo y Ukulele

  •    Am                          G
    E ---0-----0-0-----0-----0-0-----0-----0-1h0---0-----0-1h0
    B -----1---1-0h1-----1---1-0h1-----1---1-1-------1---1-1--
    G -------2-2-2---------2-2-2---------0-0-0---------0-0-0--
    D --------------------------------------------------------
    A -0-------------0----------------------------------------
    E -----------------------------3-------------3------------
    
       D          D/F#          Am              G     
    E ---2-----2------2-----2-2---0-----0-0-----3--------------
    B -----3---3--------3---3-3-----1---1-0h1---3--------------
    G -------2-2----------2-2-2-------2-2-2-----4--------------
    D -0------------------------0---------------5--------------
    A ------------------------------------------5--------------
    E ------------3-2---------------------------3--------------
    
    Am             G
    Camino en mi soñar 
                   D
    y sueño al caminar 
    
  • CORRECCION DEL PUNTEO
    LP CICLOS
    
    TRANSCRITO POR: Omar Miranda
    4/08/2002
    
    Esta es la corrección del punteo
    
    PUNTEO:
    
      Am                          G                Dsus2
    e--10/12----10-------------|--------------------------------------
    G-------------13-12-8-8/10-|-(10)----6-8/10----6-3---------------- 
    B--------------------------|--------------------------------------
    D--------------------------|--------------------------------------
    A--------------------------|--------------------------------------
    E--------------------------|--------------------------------------
             Am                        G
    e----------------------------------10/12---------------------
    G-5-6/8--5-3---6-5---8-6---10-8-10--------------------------- 
    B------------------------------------------------------------
    D------------------------------------------------------------
    A-----------
  •    Am   G    Dsus2   Dsus2/G  Dsus2/F#   F7M(I)   A#7    D7     F7M(II)
    e--0----------0---------0---------0-------0--------1------5-------8 ----
    G--1----0-----3---------3---------3-------1--------3------7-------10----
    B--2----0-----2---------2---------2-------2--------2------6-------9 ----
    D--2----0-----0---------0---------0-------3--------3------7-------10----
    A--0----2---------------0---------0-------0--------1------5-------8 ----
    E--0----3---------------3---------2----------------1------5-------8 ----
    
    
       Am                                     G    
    e---------0-0----------------0-0--------|----------0-0-1-0-----------0-0-1-0-
    G--------1----0-1-----------1----0-1----|---------0-----------------0--------
    B-------2------------------2------------|--------0-----------------0---------
    D------2------------------2-------------|-------0-----------------0----------
    A--0------------------0-----------------|------2-----------------2-----------
    E---------------------------------------|--3-----------------3---------------
    
       Dsus2      Dsus2/G  Dsus2/F#   Am
    e--------0-0------------------|--------------------------
    G-------3---------3-----3-----|-------------------------- 
    
  • +
    ¡Colabora con nosotros!
    Envíanos tu versión de esta canción

Letra de Ya que no estás
Camino en mi soñar
y sueño al caminar............que
esos pasos me conduzcan hacia ti
alcanzo a vacilar
vacilo al alcanzar............aquel
camino que te separó de mí
Mas cuando yo bailo
vuelvo a respirar
dejo mi letargo
brillo un poco más
por un instante puedo olvidar
todo mi quebranto
mi eterna soledad
Hoy grito por salir
y salgo a gritar............tu nombre
a cada esquina que te vio pasar
cansado ya de andar
andado en el cansancio........le ordené
a mis pies no dar un paso más.
Mas cuando yo bailo
vuelvo a respirar
dejo mi letargo
brillo un poco más
por un instante puedo olvidar
todo mi quebranto
mi eterna soledad
PUNTEO:
Mas cuando yo bailo
vuelvo a respirar
dejo mi letargo
brillo un poco más
por un instante puedo olvidar
todo mi quebranto
mi eterna soledad
mi eterna soledad
mi eterna soledad
ESPERO QUE SEA DE SU AGRADO
CUALQUIR DUDA, CONCEJO O COMENTARIO
POR FAVOR ESCRIBIR A: omarmc4@hotmail.com




[Ya que no estás chords][Ya que no estás cifra]
© LaCuerda.net · aviso legal · privacidad · es · en · pt · contacto