Acordes de Guitarra » O »Octavia » Despues de tí (Tab)

Despues de tí
Octavia

Letras, Acordes y Tabs para Guitarra, Bajo y Ukulele

  • G          D
    Te acercas igual que el viento
    Em               C
    a acariciar mi piel
    G             D      Em
    sueles encontrar la chispa
    C
    que enciende el volcán
         G
    y te vas
           D
    y no estás
       Em           C
    yo sé que nadie te atará
    G               D
    juegas con mis sentimientos
    Em             C
    dices que es amor
    G        Dsus        Em    C7
    Sé que ya nada cambiará... nada
    
  •     G   D  Dsus2   Em   C  Cadd9  Em7  Bb
    e|--3---2----0-----0----0----0-----0---1---|
    B|--3---3----3-----0----1----3-----0---3---|
    G|--0---2----2-----0----0----0-----0---3---|
    D|--0---0----0-----2----2----2-----0---3---|
    A|--2--------------2----3----3-----2---1---|
    E|--3--------------0---------------0-------|
    
    G          D           Em    C
    Se que ya nada cambiara   no nada
    G         D           Em   C
    Se que jamas te olvidare o no lo haré 
    G          D           Em    C
    Se que ya nada cambiara no nada
    G         D           Em   C           Cadd9 
    Se que jamas te olvidare no no lo haré 
    
    G             D          Dsus2   D     Em          C   Cadd9 C
     Te acercas igual que el vien____to a acariciar mi piel
    G             D      Dsus2   D    Em                C   Cadd9 
    
  • e ----------------------------------------| 
    B ------------------7~-8~-----------------| 
    G -5~-4~-0--5~-4~-0-------7--7-5-4-2-0-2--| 
    D ----------------------------------------| 
    A ----------------------------------------| 
    E ----------------------------------------| 
    
    ------------------------------------------------|
    --------------------7~-5~-5-8-5-8-5-8-5-8-5-8~--|
    --5~-4~-0--5~-4~-0------------------------------|
    ------------------------------------------------|
    ------------------------------------------------|
    ------------------------------------------------|
    
    -----------------|-------------------7~-|
    -7-8-10-8-7-8-5~-|--8~--7-8-10-8-7-8----|
    -----------------|----------------------|
    -----------------|----------------------|
    -----------------|----------------------|
    -----------------|----------------------|
    
  • e|-----|-----|--O--|----
    B|-----|-----|-----|----
    G|-----|-----|-----|----
    D|-----|-----|-----|----
    A|-----|--O--|-----|----
    E|-----|-----|--O--|----
    
             (G)
    
        1    2    3    4             1     2     3     4
    e|-----|-----|--O--|----     e|-----|-----|-----|----
    B|-----|--O--|-----|----     B|-----|--O--|-----|----
    G|-----|-----|--O--|----     G|-----|-----|--O--|----
    D|-----|-----|-----|----     D|-----|-----|-----|----
    A|-----|-----|-----|----     A|-----|-----|-----|----
    E|-----|-----|-----|----     E|-----|-----|-----|----
    
              (D)                         (Dsus2)
    
        1    2    3    4
    
  • s = slade
    h = hammer/martillo
    esta cancion es re facil
    los unicos cambios se lo realizan al tocar C DO
    bueno escuchen la cancion pa ubicarse mejor
    esta la cancion enterita
    saludos
    
    Intro
    
         G         D       E            C
    E|--3-33-3-|--------|------|-------------------|
    A|---------|-5-55-5-|-7-77-|-7-5-3--------7-5--|
    D|---------|--------|------|--------5h7-5------|
    G|---------|--------|------|-------------------|
    
    E|--3-33-3-|--------|------|--------77-5------|
    A|---------|-5-55-5-|-7-77-|-7-5-3-------5-7--|
    D|---------|--------|------|------------------|
    G|---------|--------|------|------------------|
    
    Te acercas...
    E|--3-33-3-|--------|------|-----------3------|
    A|---------|-5-55-5-|-7-77-|-7-5-3--55---3-5--|
    D|---------|--------|------|------------------|
    G|---------|--------|------|------------------|
    
    Sueles...
    E|--3-33-3-|--------|------|------------------|
    A|---------|-5-55-5-|-7-77-|-7-5-3--33-0-3-5--|
    D|---------|--------|------|------------------| x3
    G|---------|--------
  • Bueno esta cancion es facilísima son solo dos partes, se alternan,
    escuchen la cancion para ubicarse mejor
    
    G|----------------------------|---------------|
    D|----------------------------|---5h7-5-------|
    A|----------5-5-55-5-7-7-77-7-|-3-------7-5---|
    E|-3-3-33-3-------------------|-------------3-|
    
    
    G|----------------------------|---------------|
    D|----------------------------|---------------|
    A|----------5-5-55-5-7-7-77-7-|-3-5-----------|
    E|-3-3-33-3-------------------|-----5-5-5-3---|
  • +
    ¡Colabora con nosotros!
    Envíanos tu versión de esta canción

Letra de Despues de tí
Te acercas igual que el viento
a acariciar mi piel
sueles encontrar la chispa
que enciende el volcán
y te vas
y no estás
yo sé que nadie te atará
juegas con mis sentimientos
dices que es amor
Sé que ya nada cambiará... nada
sé que jamás te olvidaré... no lo haré
La luz del recuerdo
baña mi interior, así
y voy buscando
entre las nubes, algo...
aún canto por ti
muero por ti
nada será igual después de ti
tal vez tu recuerdo
vuelva a acariciar mi piel
Sé que ya nada cambiará... nada
sé que jamás te olvidaré... no lo haré
Sé que ya nada cambiará... nada
sé que jamás te olvidaré... no lo haré




[Despues de tí chords][Despues de tí cifra]
© LaCuerda.net · aviso legal · privacidad · es · en · pt · contacto