Acordes de Guitarra » O »Octavia » No le Digas (Tab)

No le Digas
Octavia

  • Tablatura
       Em      B7     Am      D7      G       C
    e--0-------2------0-------2-------3-------0
    G--0-------0------1-------1-------0-------1
    B--0-------2------2-------2-------0-------0
    D--2-------1------2-------0-------0-------2
    A--2-------2------0-------0-------2-------3
    E--0-------0------0-------0-------3-------0
    
    
    LA CANCION ESTA EN RITMO DE CUECA EN TONO DE MI MENOR
    PARA QUE LA CANCION TE SALGA BIEN TE ACONSEJO QUE LO HAGAS TOCANDO 
    CON ARPEGIOS ESTO YA DEPENDERA DE TU PROPIA HABILIDAD
    
    INTRO:
    
    e---5--7--8---------5---3--5--|---7--0---2--3-----2--3--5-----|------2----0--0---
    G-------------7--8------------|----------------------------4--|---5-------0--0---
    B-----------------------------|-------------------------------|-----------0--0---
    D-------------0---------------|-------------------------------|-----------2--2---
    A---0-------------------------|------3---------------------2--|-----------2--2---
    
  • +
    ¡Colabora con nosotros!
    Envíanos tu versión de esta canción

Letra de No le Digas
LA CANCION ESTA EN RITMO DE CUECA EN TONO DE MI MENOR
PARA QUE LA CANCION TE SALGA BIEN TE ACONSEJO QUE LO HAGAS TOCANDO
CON ARPEGIOS ESTO YA DEPENDERA DE TU PROPIA HABILIDAD
Si te encuentras con la Ninfa
no le digas que he llorado
dile que en los rios me viste |
lavando oro para su cofre |
/
Si te encuentras con la Trini
no le digas que he sufrido
dile que en los campos me viste |
buscando lirios para sus trenzas |
/
Si te pregunta la Flora
acordandose de mi
no le digas que me has visto
no le digas que la quiero
en un rincon del olvido
no le digas que la espero
ay laralaralayla..........
laralay..........
laylaralay................
en un rincon del olvido
no le digas que la espero
ESPERO QUE SEA DE TU AGRADO
CUALQUIR DUDA, CONSEJO O COMENTARIO
POR FAVOR ESCRIBIR A: omarmc4@hotmail.com



© LaCuerda.net · aviso legal · privacidad · contacto
DINAMICO