Acordes de Guitarra » O »Octavia » Ajayu (Tab)

Ajayu
Octavia

Letras, Acordes y Tabs para Guitarra, Bajo y Ukulele

  • He vuelto a entrar en tus silencios
    casi te puedo escuchar
    ya no estas no... estoy solo
    pero aún huelo a ti
    vuelve a mi...
    
    En el jardin vajo la lluvia
    vuelvo a verte bailar
    Aún recuerdo y estraño
    tu calor, tu calor, tu dolor...
    vuelve a mi...
    
    Rasgueado
    
      E           C#m
    y las huellas de tu sombra
      B           E
    me preguntan donde estas
    y este sitio, que es mi vida
    a quedado grande para mi
    y estas flores y esta tumba
    solo me hablan de ti
    vuelve a mi...
    
    ya nada tiene calor
    ya nada tiene sabor
    ya nada tiene calor
    sin ti sin ti
    
    vuelve a mi
  • E -----2--3-----2--3------2-3-----2-3---
    b ---3--------3---------3-------3-------
    G -0--------0---------0-------0---------
    D --------------------------------------
    A --------------------------------------
    E --------------------------------------
    
    E -----2--3-----2--3-----2--3-----2--3--
    b ---3--------3--------3--------3-------
    G --------------------------------------
    D -2--------2--------2--------2---------
    A --------------------------------------
    E --------------------------------------
    
    E -----2--3-----2--3-----2--3----2--3---
    b ---3--------3--------3-------3--------
    G --------------------------------------
    D --------------------------------------
    A -2--------2--------2-------2----------
    E --------------------------------------
    
    E -----3--2-----3--2-----3--2------3--2-
    b ---2--------2--------2--------2-------
    G -3--------3--------3--------3---------
    D --------------------------------------
    A --------------------------------------
    E --------------------------
  •     E7    C#m7  Bsus4  Asus2  E    A
    e----0-----0-----0------0-----0----0------
    G----0-----0-----0------0-----0----2------
    B----8-----6-----4------2-----1----2------
    D----9-----6-----4------2-----2----2------
    A----7-----4-----2------0-----2----0------
    E-----------------------------0----0------
    
    INTRO:
    
       E7                        C#m7
    e----------0-----------0--|----------0-----------0-----|
    G----------0-----------0--|----------0-----------0-----|
    B------8-----------8------|------6-----------6---------|
    D----9-----------9--------|----6-----------6-----------|
    A--7-----------7----------|--4-----------4-------------|
    E-------------------------|----------------------------|
    
       Bsus4                     C#m7
    e----------0-----------0--|----------0-----------0-----|
    
  • G ----------------------------------
    D ----------------------------------
    A --------4-4-4--------2-2-2--0-0-0-
    e --0-0-0--------2-2-2--------------
    
    Para los coros
    
    G ----------------------------------
    D ----------------------------------
    A ---------4---2----0---------------
    e --0--3----------------------------
  • +
    ¡Colabora con nosotros!
    Envíanos tu versión de esta canción

Letra de Ajayu
y las huellas de tu sombra
me preguntan donde estas
y este sitio, que es mi vida
a quedado grande para mi
y estas flores y esta tumba
vuelve a mi...
ya nada tiene calor
ya nada tiene sabor
ya nada tiene calor
sin ti sin ti
vuelve a mi




[Ajayu chords][Ajayu cifra]
© LaCuerda.net · aviso legal · privacidad · es · en · pt · contacto