Acordes de Guitarra » N »Los Nocheros » Entre el cielo y la tierra (Tab)

Entre el cielo y la tierra
Los Nocheros

Letras, Acordes y Tabs para Guitarra, Bajo y Ukulele

  • MIm              LAm
    Yo siento que me provocas
    SI7                MIm
    Aunque no quieras hacerlo
                      LAm
    Está grabado en tu boca
    SI7              MIm
    Al rojo vivo el deseo.
    
    SOL            LAm
    Y casi puedo tocarte
    RE7             SOL
    Como una fruta madura
    MIm                 LAm
    Presiento que voy a amarte
    SI7             MIm
    Más allá de la locura.
    
    MIm
    Voy a comerte el corazón a besos
    
  •  Am7                Dm7
    Yo siento que me provocas
    Esus4       E7         Am
    Aunque no quieras hacerlo
                       Dm7
    Está grabado en tu boca
    Esus4   E7         Am
    a rojo vivo el deseo.
    
    C                 G
    Y casi puedo tocarte
    F               Esus4-E7
    Como una fruta madura
    F7                     G/B
    Presiento que voy a amarte
    F7               Esus4 | E7 |
    Más allá de la locura.
    
          Am
    Voy a comerte el corazón a besos
    
  • Am                    Dm    E                    Am
      Yo siento que me provocas, aunque no quieras hacerlo.
    Am                   Dm   E                  Am
      Está grabado en tu boca, al rojo vivo el deseo.
     C                G   Dm                  E
      Y casi puedo tocarte, como una fruta madura,
     F                     Em    F                  E
      presiento que voy a amarte, más allá de la locura.
    
              Am                               Dm
      VOY A COMERTE EL CORAZÓN A BESOS,
     A RECORRER SIN LÍMITES TU CUERPO,
                 G                                      C                  E7
      Y POR EL SUELO NUESTRA ROPA, SUAVE, GOTA A GOTA,
    VOY A EMBORRACHARTE DE PASIÓN.
              Am                               Dm
      VOY A COMERTE EL CORAZÓN A BESOS, A RECORRER
    SIN LÍMITES TU CUERPO,
               G                                      C               E7
    
    
  • 1-------4--5--7--8--8-8-7--5-5---12--12-----
    2--5--7----------------------------------10-
    3-------------------------------------------
    4-------------------------------------------
    5-------------------------------------------
    6-------------------------------------------
    
    
    1------12--12--10--10--8--7------
    2--10------------------------8---
    3--------------------------------
    4--------------------------------
    5--------------------------------
    6--------------------------------
    
    1--5--8--6--5----------------------5---------
    2--------------8---7---5---------------------
    3------------------------5--6--8-----5-5-4--7
    4--------------------------------------------
    5--------------------------------------------
    6--------------------------------------------
    
    1-----------------------------------------12-13-12
    2-----5--6--8-------------------------------------
    3---------------7---5----4---4--5---7--9----------
    4-------------------------------------------------
    5---------------
  • 1---------------------------------
    2--------0--1--0-----3------------
    3-----2-----------2---------------
    4--2--------------------3---------
    5---------------------------------
    6---------------------------------
    
    
    1---------------------------------
    2-----------0--1-----0------------
    3-----1--2--------0-----2---------
    4--2------------------------------
    5---------------------------------
    6---------------------------------
    
    1---------------------------------
    2--------0--1--0------------------
    3-----2-----------2--0------------
    4--2--------------------3---------
    5---------------------------------
    6---------------------------------
    
    1---------------------------------
    2-----------0--1-----0------------
    3-----1--2--------0-----2---------
    4--2------------------------------
    5---------------------------------
    6---------------------------------
    
    1-----------0--------0------------
    2-----1--3-----3--1-----3---------
    3--0------------------------------
    4---------------------------------
    5--------------
  • +
    ¡Colabora con nosotros!
    Envíanos tu versión de esta canción

Letra de Entre el cielo y la tierra
Yo siento que me provocas
Aunque no quieras hacerlo
Está grabado en tu boca
Al rojo vivo el deseo.
Y casi puedo tocarte
Como una fruta madura
Presiento que voy a amarte
Más allá de la locura.
Voy a comerte el corazón a besos
A recorrer sin límites tu cuerpo
Y por el suelo nuestra ropa
Suave gota a gota
Voy a emborracharme de pasión
Voy a comerte el corazón a besos
A recorrer sin límites tu cuerpo
Voy a dejar por tus rincones
Pájaros y flores
Como una semilla de pasión
Ahora tu sueltas el pelo
Y así descalza caminas
Voy a morder el anzuelo
Pues quiero lo que imaginas
Cuando se cae tu vestido
Como una flor por el suelo
No existe nada prohibido
Entre la tierra y el cielo




[Entre el cielo y la tierra chords][Entre el cielo y la tierra cifra]
© LaCuerda.net · aviso legal · privacidad · es · en · pt · contacto